Oops, an error
Loading. Please wait.

Moquiento Tab

28 views 1 this week
no commentswrite comment
1 2 3 4 5
3 more votes to show rating
add to favorites
launch autoscroll
font size
0
reset
how to read this tab
guitar tuner
×
Best way to learn
"Moquiento"
Autoscroll
slow
fast
+/-
esc
set tempo
stop
RIFF 1
e-------------
B-------------
G-------------
D-7--7-7-7-7--
A-7--7-7-7-7--
E-5--5-5-5-5--

RIFF 2
e-----------------------------------
B-----------------------------------
G-----------------------------------
D-----------------------------------
A-----------------------8--8--7-----
E-5--6--8--5---5--6--8-----------8--

BASE 1
e---------------
B---------------
G-4-------------
D-4---5---3--2--
A-2---5---3--2--
E-----3---1--0--

RIFF 3
e---------------
B---------------
G---------------
D------------0--
A------2--------
E-0-0-----3-----

RIFF 4
e-------------------
B-------------------
G-------------------
D-------5--5-----5--
A-7--7--------7-----
E-------------------

BASE 2
e----------------------------------
B----------------------------------
G----------------------------------
D-2--3--5--2--3--5--2--3--5--2--3--
A-2--3--5--2--3--5--2--3--5--2--3--
E-0--1--3--0--1--3--0--1--3--0--1--

BASE 2'
e--------------------------------------------
B--------------------------------------------
G-5--4---------------------------------------
D-5--4--5--2---1--3-3--2--3--5---3--5--2--3--
A-3--2--5--2---1--3-3--2--3--5---3--5--2--3--
E-------3--0---1--3-3--0--1--3---1--3--0--1--

INTRO: RIFF 1 (X4)

(Sobre RIFF 2)
MI VIDA ES PEDIR DINERO
PERA COMPRAR PEGAMENTO
MI VIDA ES PEDIR DINERO
PERA COMPRAR PEGAMENTO

(Sobre RIFF 1)
NO AGUANTO MAS!

(Sobre RIFF 2)
MIS COMPAÑEROS DE RUTA
MIS COMPAÑEROS DE RUTA
MIS COMPAÑEROS DE RUTA
MUEREN CADA DIA

(Sobre RIFF 1)
NO AGUANTO MAS!

(Sobre BASE 1)
TUVE UNA FAMILIA Y UN HOGAR IGUAL QUE USTEDES 
ERA UNA CASILLA EN UNA VILLA (RIFF 3)
(Sobre BASE 1)
RECUERDOS DE MI PADRE, GOLPEANDO A MI MADRE
VIOLANDO A MI HERMANA Y A MI (RIFF 3)
(Sobre BASE 1)
NO PUEDO DECIR QUE FUE UNA INFANCIA MUY FELIZ
FUE MUY DURO PARA MI

RIFF 4 (X8)

(Sobre BASE 2)
NECESITO PEGAMENTO EN MI NARIZ
(Sobre BASE 2')
PARA OLVIDARME DE LA MIERDA QUE HAR ALREDEDOR
MOQUIENTO, SI
MOQUIENTO ME DICEN, MOQUIENTO SOY
MOQUIENTO, SI
MOQUIENTO ME DICEN, MOQUIENTO SOY

RIFF 1

(Sobre RIFF 2)
MIS COMPAÑEROS DE RUTA
MIS COMPAÑEROS DE RUTA
MUEREN CADA DIA
VENDEN ESTAMPILLAS

(Sobre RIFF 2)
NO AGUANTO MAS!
NO AGUANTO MAS!
NO AGUANTO MAS!
NO AGUANTO MAS!

(Sobre BASE 2 apagando las notas, o haciendo Palm Muted, como le dicen)
NECESITO PEGAMENTO EN MI NARIZ
(Sobre BASE 2')
PARA OLVIDARME DE LA MIERDA QUE HAR ALREDEDOR
MOQUIENTO, SI
MOQUIENTO ME DICEN, MOQUIENTO SOY
OH, SI SI SI
MOQUIENTO ME DICEN, MOQUIENTO SOY
OH, SI SI SI
MOQUIENTO ME DICEN, MOQUIENTO SOY
OH, SI SI SI
MOQUIENTO ME DICEN, MOQUIENTO SOY

Eso es todo, para comentarios, pedidos, puteadas, etc. 
mandenmen un mail a neotokio3@

AGUANTE EL OTRO YO!!!!
LA CUMBIA ES UNA MIERDA!!!!
Suggest correction
Give kudos to tab author, rate the tab!
1 2 3 4 5
comments
print report bad tab
guest
You may want to rate the tab now too:
select rating
Wanna post a correction for this tab? Suggest correction