Oops, an error
Loading. Please wait.

Neutro Tab

25 views 1 this week
no commentswrite comment
1 2 3 4 5
3 more votes to show rating
add to favorites
launch autoscroll
font size
0
reset
how to read this tab
guitar tuner
Autoscroll
slow
fast
+/-
esc
set tempo
stop
El tema empieza haciendo asi

e-|---------|
b-|---------|
g-|---------|
d-|---------|
a-|-2---2---|
E-|---0-----|

Riff 1

e-|----------------------------------------------|
b-|----------------------------------------------|
g-|----------------------------------------------|
d-|-2-----2--1/2-----2?-1/2-----2--7-7-7-0-8-7-5-|
a-|-2-----2--1/2-----2?-1/2-----2--7-7-7-0-8-7-5-|
E-|-0--3~-0----0?-3~-0----0--3~-0--5-5-5-0-6-5-3-|


Riff 1
Hoy nació la degeneración.
Pon tu cara y di whisky forro digital.
Fotos no quiero, tu masturbación quiero,
soy el monstruo más grave que viste en tu vida.
Esta sensación, esta revelación, es casi como amor, casi como amor.
No te juntes conmigo, soy lo prohibido,
no soy neutro, no soy neutro

Riff 2
e-|--------------------------------------------------|
b-|--------------------------------------------------|
g-|--------------------------------------------------|
d-|-------10-------9--------8--------7-/-8-/-9-/-10--| X3
a-|-------10-------9--------8--------7-/-8-/-9-/-10--|
E-|-0?-0?-8?-0?-0?-7-?0?-0?-6?-0?-0?-5?/-6?/-7?/-8---|

e-|------------------------------|
b-|------------------------------|
g-|------------------------------|
d-|-------10-------9--8--8--8~---|
a-|-------10-------9--8--8--8~---|
E-|-0?-0?-8?-0?-0?-7-?6?-6?-6~---|


Riff 1
Me nukeo, después se conectó,
este chat es la carreta más verga que hay!
Amigas no quiero, fornicar quiero!
La fidelidad careta se libera acá, poneme la cam, sexo digital.
Algo ocasional para descargar.
No te juntes conmigo, soy lo prohibido,
no soy neutro, no soy neutro

Riff 2

Esta es la base del solo
e-|----------------------------------------------------|
b-|----------------------------------------------------|
g-|----------------------------------------------------|
d-|-2--2--5--5--7--7--8--8--8--2--2--7--2--2--2--2--5--|
a-|-2--2--5--5--7--7--8--8--8--2--2?-5--2--2--2--2--5--|
E-|-0--0--3--3--5--5--6--6--6--0--0--3--0--0--0--0?-3--|

Y este es el solo

e-|-12~-----------------------------|-/12--/12--/12--/12?-12~--|
b-|-----11~--12~--9~--8~--6~--5~----|-/12--/12--/12--/12-------|
g-|------------------------------X2-|--------------------------|
d-|---------------------------------|--------------------------|
a-|---------------------------------|--------------------------|
E-|---------------------------------|--------------------------|


Riff 1
Hoy nació la degeneración.
Pon tu cara y di whisky forro digital.
Fotos no quiero, tu masturbación quiero,
soy el monstruo más grave que viste en tu vida.
Esta sensación, esta revelación, es casi como amor, casi como amor.
No te juntes conmigo, soy lo prohibido,
no soy neutro, no soy neutro

Y termina haciendo el Riff 2


AGUANTE EL OTRO YO CARAJOOO
LUIS_DAMMIT
Suggest correction
Give kudos to tab author, rate the tab!
1 2 3 4 5
comments
print report bad tab
guest
Wanna post a correction for this tab? Suggest correction