Oops, an error
Loading. Please wait.

No Me Alcanza Tab

12 views 1 this week
no commentswrite comment
1 2 3 4 5
3 more votes to show rating
add to favorites
launch autoscroll
font size
0
reset
how to read this tab
guitar tuner
Autoscroll
slow
fast
+/-
esc
set tempo
stop
Help us to improve Ultimate-Guitar.com Take our survey!
×
INTRO

      E      A  E        A

 e|--------------------------|
 B|--------------------------|
 G|----------9-----------9---|
 D|---9--9-9-7--9--9-9-9-7---| x2
 A|---7--7-7----7--7-7-7-----|
 E|--------------------------|


 E       A     E             A
No me alcanza con lo que me das
 E       A     E             A
No te alcanza con lo que te dan
  E           A     E             A
A él no le alcanza con lo que le dan
  E      A       E    A
A él ya no le alcanza


 E5    D#5   C#5  B5
Aaaah  ah    ah aaah    x2


      E B  A G# B              E B  A C#
 e|----------------|        |-------------------------|
 B|----------------|        |-------------------------|
 G|-----11-9-8-11--|        |----11-9-13-13-13-13-13--|
 D|---9-9--7-6-9---| Uoooh  |--9-9--7-11-11-11-11-11--| x2
 A|---7------------|        |--7----------------------|
 E|----------------|        |-------------------------|


Busco un lugar para ser feliz
nueva ruta hacia el sur
nuevos horizontes
nuevos horizontes

aaaaah ah  ah aaaah

Uoohh uoohhh


Me juraste no dejarme solo
me mentiste
y ahora me estoy llendo

aaaaaah ah ah aaaah


 e|--------------------------|    |---------------|
 B|--------------------------|    |---------7-----|
 G|--9-9-9-------------------|    |--9-9--9---9-8-|
 D|--------9-7-6-7-9-7-6-----| x2 |---------------| x2
 A|----------------------9-7-|    |---------------|
 E|--------------------------|    |---------------|

 e|----------------7-|
 B|------9-10-9-10---|
 G|--9-9-------------|
 D|------------------|
 A|------------------|
 E|------------------|

                No me alcanza...

 e|-7/12-12--12/7-7--7/12-12--12/19-19--19/16-16---|
 B|------------------------------------------------|
 G|------------------------------------------------|
 D|------------------------------------------------|
 A|------------------------------------------------|
 E|------------------------------------------------|


 e|--19/16-16--16/12-12--12/7-7-|
 B|-----------------------------|
 G|-----------------------------|
 D|-----------------------------|
 A|-----------------------------|
 e|-----------------------------|
Suggest correction
Give kudos to tab author, rate the tab!
1 2 3 4 5
comments
print report bad tab
guest
You may want to rate the tab now too:
select rating
Wanna post a correction for this tab? Suggest correction