Oops, an error
Loading. Please wait.

No Me Importa Morir Bass Tab

66 views 6 this week
no commentswrite comment
1 2 3 4 5
3 more votes to show rating
add to favorites
launch autoscroll
font size
0
reset
guitar tuner
Autoscroll
slow
fast
+/-
esc
set tempo
stop
Help us to improve Ultimate-Guitar.com Take our survey!
×
NO ME IMPORTA MORIR. ABRECAMINOS 1999.

Bueno, ya habia mandado esta TAB, pero la verdad estaban algunas cosas muy mal, 
y las lineas habian quedado fuera de lugar
en algunas partes, entonces la corregí y ahora suena bien...


INTRO
G-----------------------|
D------------------------|
A---7/////5-------------|
E------------------------|


Primera estrofa ('a mi lado..')
G-------------------------------------------------------------------------|
D---55555555--/10-10-10-10-10-10------------------------------------------|
A----------------------------------99999999--88888888---------------------|
E-------------------------------------------------------------------------|
'a mi lado...'
G-------------------------------------------------------------------------|
D---55555555--/10-10-10-10-10-10--1515151515151515-14-14-12-14-15-14-12-14|
A-------------------------------------------------------------------------|
E-------------------------------------------------------------------------|
'cuando no te acuerdes...'
G-------------------------------------------------------------------------|
D---5-5-5-5-5-5-5-5---/10-10-10-10-10-10-10-10----0h3333333333-222222222--|
A-------------------------------------------------------------------------|
E-------------------------------------------------------------------------|


Pre-estribillo('y estas bajo mi control...')
G----------------------------------------------|
D---10'x27'---3'x14'---2'x14'------------------|
A----------------------------------------------|
E----------------------------------------------|

'y puedo ahogarte...'
G------------------------------------------------------------------------|
D---10-10-10-10-10/15--10-10-10-10/14--3333333-222222--------------------|
A------------------------------------------------------------------------|
E------------------------------------------------------------------------|


Estribillo('no me importa morir...X2) 
G----------------------------------------------|
D--10'x16'-----15'x8'--14'x8'------------------|
A----------------------------------------------|
E----------------------------------------------|


INTRO(tournarround del tema)

Despues se repite todo hasta esta parte:

solo tu solo yo(x2)
SOL:-------------------------------------------|
RE :--10-10-10-10-10-10-10--3333333--222222----|
LA :-------------------------------------------|
MI :-------------------------------------------|


PUENTE:('Eres mia...') 
G----------------------------------------------|
D--4-4444--15151515-141414-10-10-10/14/4-------|
A----------------------------------------------|
E----------------------------------------------|

Solo de guitarra
G------------------------------------------------------
D---10'x16'-9-10-12-/15'x8'-14-14-14---14-16-15-14-16--
A------------------------------------------------------
E------------------------------------------------------

----------------------------------------------------------|
----10'x6'--9-10-11-10--9-10-11-10-9-10---/15'x8'--14'x8'-|
----------------------------------------------------------|
----------------------------------------------------------|


Pre-estribillo('y estas bajo mi control...')
G----------------------------------------------|
D---10'x27'---3'x14'---2'x14'------------------|
A----------------------------------------------|
E----------------------------------------------|

'y puedo ahogarte...'
G-------------------------------------------------------------------------|
D---10-10-10-10-10/15--10-10-10-10/14--3333333-222222---------------------|
A-------------------------------------------------------------------------|
E-------------------------------------------------------------------------|


Estribillo('no me importa morir...X2) 
G----------------------------------------------|
D--10'x16'-----15'x8'---14'x6'--15-14----------|
A----------------------------------------------|
E----------------------------------------------|
esta la parte que cambia en el estribillo, 
G-------------------------------------------------------------------------|
D--10-10-10-10-10-10--9-10-11-10-9-10-11-10-9-10--15'x8'---14'x6'--15-14--|
A-------------------------------------------------------------------------|
E-------------------------------------------------------------------------|


FINAL

Sigue diciendo 'No me importa morir!' y al final le agrega esto:  (3:03)
G-----------------|
D----14-15-10------|
A-----------------|
E------------------|


/:slide (en la intro, el ///// es slide, y marca el tiempo entre que la guitarra hace e5 y D5)
h:hold on
'x2': tocar lo que esta detras de este simbolo 2 veces.

cualkier duda, sugerencia, comentario, lo que sea:

cececepe@   

suerte!!
Suggest correction
Give kudos to tab author, rate the tab!
1 2 3 4 5
comments
print report bad tab
guest
You may want to rate the tab now too:
select rating
Wanna post a correction for this tab? Suggest correction