Oops, an error
Loading. Please wait.

No Me Importa Morir Tab

version 1
version 1

Whole song

37 views 1 this week
no commentswrite comment
1 2 3 4 5
3 more votes to show rating
add to favorites
launch autoscroll
font size
0
reset
how to read this tab
guitar tuner
×
Best way to learn
"No Me Importa Morir"
Autoscroll
slow
fast
+/-
esc
set tempo
stop
Acordes:
E5:022xxx ó e5:x799xx
C5:x355xx
F5:133xxx
D5:x577xx

Intro:e5-D5


riff 1: BAse de C-F-E
1-----------------------------------------------
2----------------------------------------------
3------------------------2--2--2--2--1--1--1--1-
4---2--2--2--2--2--2---3--3--3--3---2--2--2--2--
5-3--3--3--3--3--3------------------------------
6-----------------------------------------------

la primera parte igual a arriba pero luego
3-----------------------------------------------
4----1--1--1--2--1----------------------------------
5--2--2--2----------2--0-y comienza el riff de nuevo
6-----------------------------------------------

TOCAR RIFF 1 SOBRE:

A mi lado nada nos separara,
nadie te hará daño.
A mi lado nadie te tocará,
nadie se acordará de ti.
Cuando no te acuerdes de nada
serás mía.

C5
Y estas bajo mi control
       F5         E5  
solo yo puedo tocarte
C5
   y puedo ahogarte
     F5               E5  
en el vertigo del sadismo.
C5
No me importa morir,
F5               E5
no me importa morir,


Cuando no haya aire para respirar
te estaré asfixiando,
encadenada con mi foto
condenada a pensar en mi.
El pasado desaparece
y eres mía...

Y estas bajo mi control
solo yo puedo tocarte
y puedo ahogarte
en el vertigo del sadismo.

No me importa morir,
no me importa morir,

C5 [conPM]             (esta parte se repite dos veces)
Solo tu. solo yo
C5 (con PM)
solo tu, solo yo,
C5       E5 D5
   eres  míiia

despues sigue:

riff 2:(esta parte se toca 4 veces)

1--------------------!-------------------     
2--------------------!-------------------  *(la cuarta vez que tocas el riff 
3-5-5-5-5/-----------!-------------------   tocas hasta aca y empieza el solo)
4-5-5-5-5/10-10/9-9-9--5/10-10-----------
5-3-3-3-3/8-8/--7-7-7--3/8--8------------ y comienza de nuevo 
6----------------------------------------
     ERES MIA  
SOLO:(creo que se hace con un pedal de vibrato algo parecido)

1---------------------------------------------------------------------
2-9-9-9-9-9-9-9-9/2-2-2-2/3-3-3-3/5-5-5-5/7-7-7/5-5-5/7-7-7/9-9-9^v^v-
3-9-9-9-9-9-9-9-9/2-2-2-2/3-3-3-3/5-5-5-5/7-7-7/5-5-5/7-7-7/9-9-9^v^v-
4---------------------------------------------------------------------
5---------------------------------------------------------------------
6---------------------------------------------------------------------

1----------------------------------------------------
2--------------------------------------13/15^v^v^v^--
3-----9^v9^v9^V/11-9-11/13-11-13/15-13---------------
4----------------------------------------------------
5----------------------------------------------------
6----------------------------------------------------


FINAL:
C5
Y estas bajo mi control
       F5         E5  
solo yo puedo tocarte
C5
   y puedo ahogarte
     F5               E5  
en el vertigo del sadismo.

NO ME IMPORTA MORIR....
...................
..................
C5
No me importa morir,
F5               E5   C5/D5/C5 (DEJAR SONANDO)
no me importa morir,

FIN

AGUNTE EL OTRO YO

PREGUNTAS A ATRO1@
Suggest correction
Give kudos to tab author, rate the tab!
1 2 3 4 5
comments
print report bad tab
guest
You may want to rate the tab now too:
select rating
Wanna post a correction for this tab? Suggest correction