Oops, an error
Loading. Please wait.

No Me Importa Morir Tab

version 2
version 2

Whole song

Interactive

31 views 1 this week
no commentswrite comment
1 2 3 4 5
3 more votes to show rating
add to favorites
×
Save as Personal and add changes to this tab that will be seen only by you. Learn more ›
×
You can save this tab as Personal to edit and correct it or add notes. All changes will be seen only by you. Learn more »
save as personal
new!
launch autoscroll
font size
0
reset
how to read this tab
guitar tuner
Autoscroll
slow
fast
+/-
esc
set tempo
stop
Afinación Standard
La mejor banda en español.

Intro / Versos
   E  D                       C                    F             E
-|-------|------------------------------------------------------------------|-
-|-------|------------------------------------------------------------------|-
-|-9\-7\-|------------------------------------------------------------------|-
-|-9\-7\-|---2---2---2---2---2---2---2---2---7---7---7---7---6---6---6---6--|-
-|-7\-5\-|-3---3---3---3---3---3---3---3---8---8---8---8---7---7---7---7----|-
-|-------|------------------------------------------------------------------|-


Pre coro / Coro                                                                 
                 C                         F              E
-|-----------------------------------------------------------------|----------
-|-----------------------------------------------------------------|----------
-|-5-5-5-5-5-5-5-5-5-5-5-5-5-5-5-5---------------------------------|----------
-|-5-5-5-5-5-5-5-5-5-5-5-5-5-5-5-5-3-3-3-3-3-3-3-3-2-2-2-2-2-2-2-2-|----------
-|-3-3-3-3-3-3-3-3-3-3-3-3-3-3-3-3-3-3-3-3-3-3-3-3-2-2-2-2-2-2-2-2-|----------
-|---------------------------------1-1-1-1-1-1-1-1-0-0-0-0-0-0-0-0-|----------
                                                                              

Puente
-|-----------------------------------------------------------------|----------
-|-----------------------------------------------------------------|----------
-|-5-5-5-5-5-5-5-5-5-5-5-5-5-5-5-5---------------------------------|----------
-|-5-5-5-5-5-5-5-5-5-5-5-5-5-5-5-5-3-3-3-3-3-3-3-3-2-2-2-2-2-2-2-2-|----------
-|-3-3-3-3-3-3-3-3-3-3-3-3-3-3-3-3-3-3-3-3-3-3-3-3-2-2-2-2-2-2-2-2-|----------
-|---------------------------------1-1-1-1-1-1-1-1-0-0-0-0-0-0-0-0-|----------
   .........Palm Muted............                                            

-|--------------------------------------|-------------------------------------
-|--------------------------------------|-------------------------------------
-|---------------10-10-10-10-10------9\-|---------------10-10-10-10-10-10-10--
-|-6-6-6-6-6-6-6-10-10-10-10-10------9\-|-6-6-6-6-6-6-6-10-10-10-10-10-10-10--
-|-6-6-6-6-6-6-6-8--8--8--8--8-------7\-|-6-6-6-6-6-6-6-8--8--8--8--8--8--8---
-|-4-4-4-4-4-4-4----------------0-0-----|-4-4-4-4-4-4-4-----------------------
                                     X3                                       

Solo
-|--------------------------------------------------------------------------|-
-|--------------------------------------------------------------------------|-
-|-12-12-12-12-12-12-12-12-12-12-12-12-12-12-12-12-12-12-12-12-12-12-12-12--|-
-|--------------------------------------------------------------------------|-
-|--------------------------------------------------------------------------|-
-|--------------------------------------------------------------------------|-
  tremolo picking                                                             

-|--------------------------------------|-------------------------------------
-|--------------------------------13-//-|-------------------------------------
-|-2-4-5-7-5-7-9v-------9/12\9-12-------|-------------------------------------
-|----------------10b12-----------------|-------------------------------------
-|--------------------------------------|-------------------------------------
-|--------------------------------------|-------------------------------------
                                                                              


En el coro se usa un efecto, creo que debe ser un delay, con un tiempo de retardo 
muy bajo.
Suggest correction
Give kudos to tab author, rate the tab!
1 2 3 4 5
comments
print report bad tab
guest
Wanna post a correction for this tab? Suggest correction