Oops, an error
Loading. Please wait.

No Se Porque Tab

11 views 1 this week
no commentswrite comment
1 2 3 4 5
3 more votes to show rating
add to favorites
launch autoscroll
font size
0
reset
how to read this tab
guitar tuner
×
Best way to learn
"No Se Porque"
Autoscroll
slow
fast
+/-
esc
set tempo
stop
Intro, interludio
 
e-|-----------------------|
B-|-----------------------|
G-|-----------------------|
D-|-7-7-7-----------------|
A-|-7-7-7-----------------|
E-|-5-5-5-5-6-6-7-8-7-6-5-|
A5 A A#A#B C B A#A
 
Estrofa

 
e-|----------------|
B-|----------------|
G-|--------------8-|
D-|-7---9---11---8-|
A-|-7---9---11---6-|
E-|-5---7---9------|
A5 B5 C#5 D#5
No, no, no me importa / no, no, no, no, no, no, no, no,no
 
e-|----------------|
B-|----------------|
G-|----------------|
D-|-7---9---11---9-|
A-|-7---9---11---9-|
E-|-5---7---9----7-|
A5 B5 C#5 B5
No me interesa, no sé porqué / No me importa, no sé porqué
Suggest correction
Give kudos to tab author, rate the tab!
1 2 3 4 5
comments
print report bad tab
guest
You may want to rate the tab now too:
select rating
Wanna post a correction for this tab? Suggest correction