Oops, an error
Loading. Please wait.

Nuevo Orden Tab

7 views 1 this week
no commentswrite comment
1 2 3 4 5
3 more votes to show rating
add to favorites
launch autoscroll
font size
0
reset
how to read this tab
guitar tuner
Autoscroll
slow
fast
+/-
esc
set tempo
stop
Help us to improve Ultimate-Guitar.com Take our survey!
×
Intro y estribillos así:

Como a bajo volumen y distorsión despues del punteo de María sube el volumen:

e|-----------------------------------------------
B|-----------------------------------------------
G|-----------------------------------------------
D|-55-444----------------------------------------
A|-55-444----------------------------------------
E|-33-222----------------------------------------

Punteo de María cuando entra Ray:

G|----------------------
D|----------------------
A|----------------------
E|-3232-----------------

Sobre el intro y los estribillos que toca Cristian, María hace algo así:

G|---------------------------
D|---------------------------
A|---------------------------
E|-33-22-32323---------------

Durante los versos usa un ruido que creo que los hace Eze:

e|-(3)-(2)-(3)-(2)-(3)-(2)-(3)-(2)-11----------
B|---------------------------------------------
G|---------------------------------------------
D|---------------------------------------------
A|---------------------------------------------
E|---------------------------------------------

Nota: El (3) y el (2) se tocan rápido como un tremolo picking.
-----

Mientras María puntea
con el bajo los versos:

G|---------------------------------
D|---------------------------------
A|------------------3-2------------
E|-3333-2222-3333-2-----3----------


El 1º Puente está sobre La5

El 2º Puente Está sobre esta base de bajo:

G|-------------------------------
D|-------------------------------
A|-------------------------------
E|-33-222-33-222-33-222-33-222---

Ahora la letra y la estructura de la canción:
---------------------------------------------

Versos
------
No se puede vivir así,
la miseria te llegó
nada de sonrisas trucadas,
estas escuchando

A veces parece que nos creemos,
la mentira que nos metieron
pero es una ficción
estas escuchando

Estribillo:
-----------
Uey! este es el nuevo orden
LA nueva dirección
este es el nuevo orden
LA nueva raza

Versos:
-------
Y la historia se repitió
años de pan cantando el rock
siempre la misma historia escrita
estas escuchando

Preferis poner la fé
la nueva droga del sistema
mirate bien
cree en vos

1ºPuente:
--------
Con convicción
con mal humor
con poco Dios
con tu razón

Ya no
ya no
ya no
ya no

Estribillo:
-----------
Uey! este es el nuevo orden
LA nueva dirección
este es el nuevo orden
LA nueva raza

2º Puente:
----------
No acepto (si)
No acepto se vendio
No acepto (si)
No acepto se vendio

Estribillo:
-----------
Uey! este es el nuevo orden
LA nueva dirección
este es el nuevo orden

1º Puente:
----------
Con convicción
con mal humor
con poco Dios
con tu razón

Ya no
ya no
ya no
ya no
NO

Final:
------

LA5              RE#5            LA5   DO5
La verdad que si se mantiene atrapante
             LA5  RE#5
te quiere chupar
             LA5  DO5
te quiere acabar
               LA5
ROMPE LA EXTRUCTURA

Fin: La5

Nota: En el final María sigue las notas que hace Cristian.
-----

Eso es todo espero que les guste... Por ahí no está muy correcta porque recien
estoy empezando a sacar canciones de oído pero se hace lo que se puede.
Suerte con la Tab espero que me entiendan...
Cualquier duda, comentario o alguna canción nueva de e.o.y escribanme a mi mail
universop@

AGUANTE EL OTRO YO!!!
Suggest correction
Give kudos to tab author, rate the tab!
1 2 3 4 5
comments
print report bad tab
guest
You may want to rate the tab now too:
select rating
Wanna post a correction for this tab? Suggest correction