Oops, an error
Loading. Please wait.

Olvidar Tab

3 views 1 this week
no commentswrite comment
1 2 3 4 5
3 more votes to show rating
add to favorites
launch autoscroll
font size
0
reset
how to read this tab
guitar tuner
Autoscroll
slow
fast
+/-
esc
set tempo
stop
Help us to improve Ultimate-Guitar.com Take our survey!
×
INTRO: E
¨¨¨¨¨¨
E
 Tus ojos verdes lloran
               RIFF1
 el amor se terminó
 la despedida es larga   
 como alguien que murió
A                         E            
 seguimos vivos en este planeta

A                              E RIFF1
 seguimos vivos en este planeta

E
 No vivas del pasado
                 RIFF1
 volverás a sonreír
 no pierdas ni un solo día
 la alegría vuelve también
A
 el tiempo borra todo
 el tiempo borra todo
                                E
 el tiempo borra todas nuestras penas

(con riff)
A5
 me siento
 vacío 
                       E5  A5 
y muy muy muy muy  miseraaable 
    E5 A5        E5 A5           E5   
miserable miserable miseraaable

SOLO:
¨¨¨¨¨
e |-----------------------------------|-----------------------------|
B |-----------------------------------|-0---0-7/9-7---0---0-7/9-7---|
G |-0-1-1-1-1-1-1-1-1-0-1-1-1-3-1-3-1-|-4-6-4-------9-4~6-4-------9-|
D |-----------------------------------|-----------------------------|
A |-----------------------------------|-----------------------------|
E |-----------------------------------|-----------------------------|
                  (X4)
                
e |----12-------------14----|-------------------|
B |-12----12-12/14-14----14-|-9/10/9-7-9/10/9-7-|
G |-------------------------|-------------------|
D |-------------------------|-------------------|
A |-------------------------|-------------------| 
E |-------------------------|-------------------|

e |----12----------14----|----------------|---------|
B |-12----12-12/14----14-|-9b10r9-7b9r7-5-|---------|
G |----------------------|----------------|---------|
D |----------------------|----------------|-2-4-2-4-|
A |----------------------|----------------|---------|
E |----------------------|----------------|---------|
                                             Final

RIFF1:
¨¨¨¨¨¨
e |-----|
B |-----|
G |-----|
D |-----|
A |-----|
E |-3-4-|
Suggest correction
Give kudos to tab author, rate the tab!
1 2 3 4 5
comments
print report bad tab
guest
You may want to rate the tab now too:
select rating
Wanna post a correction for this tab? Suggest correction