Oops, an error
Loading. Please wait.

Peligro Tab

14 views 1 this week
no commentswrite comment
1 2 3 4 5
3 more votes to show rating
add to favorites
×
Save as Personal and add changes to this tab that will be seen only by you. Learn more ›
×
You can save this tab as Personal to edit and correct it or add notes. All changes will be seen only by you. Learn more »
save as personal
new!
launch autoscroll
font size
0
reset
how to read this tab
guitar tuner
Autoscroll
slow
fast
+/-
esc
set tempo
stop
'¿cual es mi...'
e|--------------------|
B|--------------------|
D|--5/77-------5-7----|
G|--5/77-------5-7----|
A|--3/55-------3-5----|
E|--------------------|

'si, mi nombre es...'
e|-----------------------------------------------------------|
B|-----------------------------------------------------------|
D|--77-7-777-7-77/55-7-77-7-777-7-77/55-7-77-7-777-7-77/55---|
G|--77-7-777-7-77/55-7-77-7-777-7-77/55-7-77-7-777-7-77/55---|
A|--55-5-555-5-55/33-5-55-5-555-5-55/33-5-55-5-555-5-55/33---|
E|-----------------------------------------------------------|

'soy malo y no...'
e|---------------------|
B|---------------------|
D|--7--7--7----7--7--7-|
G|--7--7--7--7-7--7--7-|
A|--5--5--5--7-5--5--5-|
E|-----------5---------|

'mi nombre es...'
e|-----------------------------------------------------------------------|
B|-----------------------------------------------------------------------|
D|--77-7-777-7-77/55-7-77-7-777-7-77/55-7-77-7-777-7-77/55---------------|
G|--77-7-777-7-77/55-7-77-7-777-7-77/55-7-77-7-777-7-77/55-77-7-777-7-77-|
A|--55-5-555-5-55/33-5-55-5-555-5-55/33-5-55-5-555-5-55/33-77-7-777-7-77-|
E|---------------------------------------------------------55-5-555-5-55-|

'tienen miedo...'
e|----------|
B|----------|
D|--5/77----|
G|--5/77----|
A|--3/55----|
E|----------|


'!!!satanas¡¡...'
e|----------------------------------------------------------|
B|----------------------------------------------------------|
D|--77-7-777-7-77/55-7-77-7-777-7-77/55-7-77-7-777-7-77/55--|
G|--77-7-777-7-77/55-7-77-7-777-7-77/55-7-77-7-777-7-77/55--|
A|--55-5-555-5-55/33-5-55-5-555-5-55/33-5-55-5-555-5-55/33--|
E|----------------------------------------------------------|

'no quiero a mi abuela...'
e|---------------------|
B|---------------------|
D|--7--7--7----7--7--7-|
G|--7--7--7--7-7--7--7-|
A|--5--5--5--7-5--5--5-|
E|-----------5---------|

'me gusta matar...'

e|-------------------------------|
B|-------------------------------|
D|-------------------------5--7--|
G|--7777777------7777777-775777--|
A|--7777777-8765-7777777-773775--|
E|--5555555------5555555-55-55---|
pm  *******      ******* ** **

'¿que me gusta...'
e|--------------------------------------|
B|--------------------------------------|
D|--------------------------------------|
G|------0---------------0---------------|
A|----7-----3---5-----7-----3---5---3b--|
E|--5-----5---5---5-5-----5---5---5-----|

los tiempos estan en 'contagiandose la...'.

referencias:

|-3b-||-5/77-|     
 (1)  |-5/77-|
      |-3/55-|
         (2)        (1): tocar la nota y mover para conseguir el sonido deseado
                         (bending)  
                         pero no me acuerdo.
                    (2):un slide pero tocar de nuevo la 
                         nota que se consiguio corriendo la nota.(no se si se entiende)

Eso es todo, para comentarios, pedidos, puteadas, correccion etc. 
mandenmen un mail a gustavomenin@
Suggest correction
Give kudos to tab author, rate the tab!
1 2 3 4 5
comments
print report bad tab
guest
Wanna post a correction for this tab? Suggest correction