Oops, an error
Loading. Please wait.

Personas Tab

7 views 1 this week
no commentswrite comment
1 2 3 4 5
3 more votes to show rating
add to favorites
launch autoscroll
font size
0
reset
how to read this tab
guitar tuner
Autoscroll
slow
fast
+/-
esc
set tempo
stop
Help us to improve Ultimate-Guitar.com Take our survey!
×
intro: 
e - G5 (con un efecto de flanger) 

amor... amor...
e - G5 (con distorcion)

(Riff 1)
Camino por el sol,
calor, frío
Camino por el sol,
calor, frío

A           B
 a veces sonríes tanto,
F#       G             A
 que me haces cosquillas
     B      F#             G
 a veces siento que soy vos
A              B     G
 y creo que puedo ver por tus ojos

Riff 2

E         G     E      G
aaaaaaaa uuuuuuu u u uuuu u

(riff 1)
Lastimo mis rodillas,
cuando caigo
quisiera alguien que me ayude a salvarme

A           B
 a veces sonríes tanto,
F#       G             A
 que me haces cosquillas
     B      F#             G
 a veces siento que soy vos
A              B     G
 y creo que puedo ver por tus ojos

Riff 3

solo


Riff 1
e------0---------3--------
B--------0---------0------
G---1---------------------  X4 
D--2----------------------
A-2------------1----------
E------------3------------

Riff 2 
e--------------------------------
B--------------------------------
G--------------------------------
D--9-10-9-7-----9-10-9-7---------
A--------------------------------
E--------------------------------

Riff 3
e--------------------------------
B--------------------------------
G--------------------------------
D--9-10-9-7-----9--10--9--7------
A--------------------------------
E--------------------------------

Solo (un efecto re volatil)
e--------------------------
B--------------------------
G-----7-------12----12----- X2
D--9-----9-------12--------
A--------------------------
E--------------------------

e------------------
B------------------
G------------------ X2
D-9---9-10-9-7-9---
A------------------
E------------------

e----------------------------
B----------------------------
G---------------------------- X2
D--10---10/12----10-10-9-10--
A----------------------------
E----------------------------

e------------------
B------------------
G------------------ X2
D-9---9-10-9-7-9---
A------------------
E------------------

e----------------------------
B----------------------------
G---------------------------- X2
D--10---10/12----10-10-9-10--
A----------------------------
E----------------------------

e------------------
B------------------
G------------------ X2
D-9---9-10-9-7-9---
A------------------
E------------------

e----------------------------
B----------------------------
G---------------------------- X2
D--10---10/12----10-10-9-10--
A----------------------------
E----------------------------


e--17-16-17-15--19-----------
B----------------------------
G---------------------------- sigue haciendo esto y bajando el volumen va
D---------------------------- bajando el volumen hasta que termina el tema
A----------------------------
E----------------------------

seguramente tine bastantes srrores porque es la primera vez que
publico , si pueden corregirlo mejor AGUANTE EL OTRO YO! y BOB 
Eponja , eeee (teta loquito)
Para comentarios o algo escribanme a cocho182@
Suggest correction
Give kudos to tab author, rate the tab!
1 2 3 4 5
comments
print report bad tab
guest
You may want to rate the tab now too:
select rating
Wanna post a correction for this tab? Suggest correction