Oops, an error
Loading. Please wait.

Profundidad Tab

7 views 1 this week
no commentswrite comment
1 2 3 4 5
3 more votes to show rating
add to favorites
launch autoscroll
font size
0
reset
how to read this tab
guitar tuner
Autoscroll
slow
fast
+/-
esc
set tempo
stop
Help us to improve Ultimate-Guitar.com Take our survey!
×
ACORDES:> A5 A D Bm

INTRO X3

e|-------5/7----------------------------------------------|
B|---3-------5--3--0--3--5--6-5-3-------------------------|
G|--------------------------------------------------------|
D|--------------------------------------------------------|
A|--------------------------------------------------------|
E|--------------------------------------------------------|

e|---5/7--------------------------------------------------|
B|--------5--3-0--3--5--3---------------------------------|
G|--------------------------------------------------------|
D|--------------------------------------------------------|
A|--------------------------------------------------------|
E|--------------------------------------------------------|

***(los acordes simples que estan en las estrofas
son arpegiados,osea que no se rasguean,se
puntean)***

   G
Imagina que alquilas el lugar que soñaste
esta todo bien ahi,porque cocinaste.

      C
Empapado en tus aguas
descubro profundidad de persona
de persona.

e|-------5/7----------------------------------------------|
B|---3-------5--3--0--3--5--6-5-3-------------------------|
G|--------------------------------------------------------|
D|--------------------------------------------------------|
A|--------------------------------------------------------|
E|--------------------------------------------------------|
                                                             X2
e|---5/7--------------------------------------------------|
B|--------5--3-0--3--5--3---------------------------------|
G|--------------------------------------------------------|
D|--------------------------------------------------------|
A|--------------------------------------------------------|
E|--------------------------------------------------------|

 G
Es la velocidad del invento de la mente
Es el shock,es el golpe de fantasia

        C
Ysabes la receta para descolocarme,
y enrojecer,y enloquecer

SOLO:
e|----------------------------------------------------------|
B|--------------6-6-6-6--8-8-8-8-8--9-8-6-------------------|
G|---7-7-7-7------------------------------------------------| X2
D|----------------------------------------------------------|
A|----------------------------------------------------------|
E|----------------------------------------------------------|

e|-------------------------------------------------------------|
B|-----6-------6------6-------6------8--6---6--8b-8b-8b-9b-8b--|
G|---7--7----7--7---7--7----7--7----------7--------------------|
D|-------------------------------------------------------------|
A|-------------------------------------------------------------|
E|-------------------------------------------------------------|

e|---------5/7---------------------------------------------|
B|-----3-------5--3--0--3--5-------------------------------|
G|---------------------------------------------------------|
D|---------------------------------------------------------|
A|---------------------------------------------------------|
E|---------------------------------------------------------|

   G
Empachado de colores
que se mezclan en mi boca
Arco Iris de sabores que se queman...

    C
Empapado en tus aguas
de persona
y enrojecer,y enloquecer


e|-------5/7----------------------------------------------|
B|---3-------5--3--0--3--5--6-5-3-------------------------|
G|--------------------------------------------------------|
D|--------------------------------------------------------|
A|--------------------------------------------------------|
E|--------------------------------------------------------|
                                                             X5
e|---5/7--------------------------------------------------|
B|--------5--3-0--3--5--3---------------------------------|
G|--------------------------------------------------------|
D|--------------------------------------------------------|
A|--------------------------------------------------------|
E|--------------------------------------------------------|
Suggest correction
Give kudos to tab author, rate the tab!
1 2 3 4 5
comments
print report bad tab
guest
You may want to rate the tab now too:
select rating
Wanna post a correction for this tab? Suggest correction