Oops, an error
Loading. Please wait.

Sexo En El Elevador Tab

26 views 1 this week
no commentswrite comment
1 2 3 4 5
3 more votes to show rating
add to favorites
launch autoscroll
font size
0
reset
how to read this tab
guitar tuner
×
Best way to learn
"Sexo En El Elevador"
Autoscroll
slow
fast
+/-
esc
set tempo
stop
Aca esta la misma canción, pero corregida. 
Ya saben, Herrar es Umano


BASE 1

e-----------------------------------------
B-----------------------------------------
G-7-7-7-7--7/9/10---10-10-10-10--10/9/7---
A-7-7-7-7--7/9/10---10-10-10-10--10/9/7---
E-5-5-5-5--5/7/-8----8--8--8--8---8/7/5---

RIFF
e------------------
B------------------
G-7-7-7--7-7-7/10--
A-7-7-7--7-7-7/10--
E-5-5-5--5-5-5/-8--

BASE 2

e----------------------------
B----------------------------
G-10-10-10--10-10-10/-5-5-5--
A-10-10-10--10-10-10/-5-5-5--
E--8--8--8---8--8--8/-5-5-5--

(Sobre BASE 1)
No quiero una muñeca inflable
Quiero una mujer
Estoy buscando un nuevo amor
Conocí a una linda mujer en un ascensor, en un ascensor
Conocí a una buena mujer en un ascensor, en un ascensor
(Sobre RIFF)
Te conocí en un ascensor

(Sobre BASE 2)
Sexo en el elevador (4x)

(Sobre BASE 1)
Estoy tan enamorado 
Que se la presentaré a mi mamá
Mamá, conocí a una linda mujer en un ascensor, en un ascensor
Mamá, Conocí a una buena mujer en un ascensor, en un ascensor
(Sobre RIFF)
Te conocí en un ascensor

(Sobre BASE 2)
Sexo en el elevador (4x)

Referencias:
/ = Deslizar hasta la cuerda indicada (Slide)
b = Estirar a cuerda hasta cnseguir el sonido indicado (Bending)
x = Tocar la nota anterior apagada (Palm Muted)


Eso es todo, para comentarios, pedidos, puteadas, etc. 
mandenmen un mail a neotokio3@

AGUANTE EL OTRO YO!!!!
LA CUMBIA ES UNA MIERDA!!!!
Suggest correction
Give kudos to tab author, rate the tab!
1 2 3 4 5
comments
print report bad tab
guest
You may want to rate the tab now too:
select rating
Wanna post a correction for this tab? Suggest correction