Oops, an error
Loading. Please wait.

Siberiano Tab

version 1
version 1

Whole song

7 views 1 this week
no commentswrite comment
1 2 3 4 5
3 more votes to show rating
add to favorites
launch autoscroll
font size
0
reset
how to read this tab
guitar tuner
Autoscroll
slow
fast
+/-
esc
set tempo
stop
Help us to improve Ultimate-Guitar.com Take our survey!
×
'magestades glasiares...'

e|--------------------|
B|--------------------|
G|--2-------2---------|
D|----2---2---2---2---| 2x
A|------4-------4-----|
E|--------------------|


e|----------------------------------|
B|----------------------------------|
G|---0---0---2---2---4---4---2---2--|
D|-0---0---0---0---0---0---0---0----| 1x
A|----------------------------------|
E|----------------------------------|
hacer sucecibamente las dos bases  hasta llegar al 
estribillo

'siberiano azul...'

e|--------------------------------------------|
B|--------------------------------------------|
G|--------------------------------------------|
D|---9~~~-----9~~~-----9~~~-----9~~~---7~-----|
A|---9~~~-----9~~~-----9~~~-----9~~~---7~-----|
E|---7~~~-----7~~~-----7~~~-----7~~~---5~-----|


'bosque..'
                                      
verso1                                        
e|--------------------|                  
B|--------------------|                  
G|--2-------2---------|                  
D|----2---2---2---2---| 1x               
A|------4-------4-----|
E|--------------------|

verso2
e|------------------|
B|------------------|
G|---0---0---2---4--|
D|-0---0---0---0----| 1x
A|------------------|
E|------------------|

verso1
e|--------------------|                  
B|--------------------|                  
G|--2-------2---------|                  
D|----2---2---2---2---| 1x               
A|------4-------4-----|
E|--------------------|

verso2
e|-------------------|
B|-------------------|
G|---0---0---2---4---|
D|-0---0---0---0-----| 1x
A|-------------------|
E|-------------------|
         
 el 'punteo' empieza pegado al 'verso2'        
punteo:
e|----------------------|
B|----------------------|
G|--6-6-4-6-7-6-4-6-2---|
D|----------------------| 2x
A|----------------------|
E|----------------------|

'siberiano azul..'
e|--------------------------------------------|
B|--------------------------------------------|
G|--------------------------------------------|
D|---9~~~-----9~~~-----9~~~-----9~~~---7~-----|
A|---9~~~-----9~~~-----9~~~-----9~~~---7~-----|
E|---7~~~-----7~~~-----7~~~-----7~~~---5~-----|


'uuuu...':
e|-----------------------------------|
B|-----------------------------------|
G|-----------------------------------|
D|---9--9/7/5--5/7/3--3/5/2--5/7-----|
A|---9--9/7/5--5/7/3--3/5/2--5/7-----|
E|---7--7/5/3--3/5/1--1/3/0--3/5-----|

'siberiano azul..'
e|------------------------------------|
B|------------------------------------|
G|------------------------------------|
D|---9~/7~---9~/7~---9~/7~--9~/7~-----|
A|---9~/7~---9~/7~---9~/7~--9~/7~-----|
E|---7~/5~---7~/5~---7~/5~--7~/5~-----|

'quien sabra como...'
e|---------------------------------------|
B|---------------------------------------|
G|-------9~------9~------9~------9~------|
D|---9~--9~--9~--9~--9~--9~--9~--9~--9~--|
A|---9~--7~--9~--7~--9~--7~--9~--7~--9~--|
E|---7~------7~------7~------7~------7~--|

final2:
e|------|
B|------|
G|------|
D|--9~--| 
A|--9~--|
E|--7~--|

no me pregunten con que pedal lo hace por que no se y
del 'SOLO' NO ESTOY MUY SEGURO PERO BUENO.


aclaracion:la nota D|--9~--| 
                   A|--9~--|
                   E|--7~--|

pueden cambiarla por D|--4~--| para ustedes la
                     A|--4~--|
                     E|--2~--|
que suene mejor.
                    
aca va la letra:

majestades glaseares se me escapan de un ojo
y en la otra ventana
o la de esa pradera

siberiano azul no mas 
as perdido la nocion del tiempo
quien sabra como volver a tus origenes
quien sabra como regresar

hasme parlante este bosque
transmitiendo todas las respiraciones
transpirando todos los aromas
vas perdiendo del planeta

siberiano azul no mas
transmitiendo todas las modulaciones 
quien sabra como volver a tus origenes
quien sabra como regresar

siberiano azul no mas
as perdido la nocion del tiempo
quien sabra como volver a tus origenes
quien sabra como 

quien sabra como regresar
he perdido la nocion del tiempo
quien sabra como regresar
he perdido la nocion del tiempo

Eso es todo, para comentarios, pedidos, puteadas, correccion etc. 
mandenmen un mail a gustavomenin@
Suggest correction
Give kudos to tab author, rate the tab!
1 2 3 4 5
comments
print report bad tab
guest
You may want to rate the tab now too:
select rating
Wanna post a correction for this tab? Suggest correction