Oops, an error
Loading. Please wait.

Siberiano Tab

version 2
version 2

Whole song

7 views 1 this week
no commentswrite comment
1 2 3 4 5
3 more votes to show rating
add to favorites
launch autoscroll
font size
0
reset
how to read this tab
guitar tuner
×
Best way to learn
"Siberiano"
Autoscroll
slow
fast
+/-
esc
set tempo
stop
Siberiano. Colmena. 


Acordes:
B5 
e|---X------|
B|---X-----|
G|---X----|
D|---9---|
A|---9---|
E|---7---|

E5
e|---X------|
B|---X-----|
G|---9-----|
D|---9----|
A|---7----|
E|---7----|

Ojo, estos son los acordes como suenan en el tema, se pueden usar tambien en 5tas perfectos
o sino basicos:

B
e|--2----|
B|--4---|
G|--4---|
D|--4---|
A|--2---|
E|--2---|

E
e|--------|
B|--------|
G|--1---|
D|--2--|
A|--2--|
E|-----|
(No lo recomiendo...)

Bueno, al tema:
INTRO.('majestades glaciares...')
e|----5--0----0---5--0---------0---5--0-----0---5--0--------0------|
B|----------3---------------3-------------3--------------3---------|
G|-----------------------------------------------------------------|
D|-----------------------------------------------------------------|
A|-----------------------------------------------------------------|
E|-----------------------------------------------------------------|


e|--3-----3------5-----5------7-----7------5-----5-----------|
B|-----3-----3------3-----3------5-----5------3------3-------|
G|-----------------------------------------------------------------|
D|-----------------------------------------------------------------|
A|-----------------------------------------------------------------|
E|-----------------------------------------------------------------|
TODO SE REPITE DOS VECES


Canto.
B5                    E5
Siberiano Azul lunar
B5                       E5
has perdido la nocion del tiempo
B5                          E5
quien sabra como volver a tu salite
B5                                E5    
quien sabra como...regresar!


2do punteo('altoparlantes del bosque...')
e|---5--0----0---5--0----0---3-------3-----5----7--------------|
B|---------3------------3---------3----3----3-----5-----------|
G|-----------------------------------------------------------------|
D|-----------------------------------------------------------------|
A|-----------------------------------------------------------------|
E|-----------------------------------------------------------------|


e|-5--0--0--5--0---0-3---3---5--7--9---7-9-10-9-7-9-5---9-7-9-10-9-7-9-5-----|
B|------3--------3----3---3-----------------------------------------------------------------|
G|-------------------------------------------------------------------------------------------------|
D|-------------------------------------------------------------------------------------------------|
A|--------------------------------------------------------------------------------------------------|
E|--------------------------------------------------------------------------------------------------|
ESTO SE HACE UNA SOLA VEZ Y CORRESPONDE AL SEGUNDO PUNTEO.


B5                 E5
Siberiano Azul Lunar
B5                           E5
Transmitiendo todas las modulaciones
B5                          E5
quien sabra como volver a tu salite
B5                                E5
quien sabra como...regresar!


Solo del tema ('huu, huuu..')
e|-------------------------------------------------------------------------------------------|
B|-------------------------------------------------------------------------------------------|
G|---9ds---9---9/14--12--12/14/12---9---7/9/7-----h9--h11--h12------------|
D|---9ds---9---9/14--12--12/14/12---9---7/9/7-----h9--h11--h12-----------|
A|---7ds---7---7/12--10--10/12/10---7---5/7/5-----h7---h9--h10----------|
E|---7ds---7---7/12--10--10/1210----7---5/7/5-----h7---h9--h10------------|


B5                    E5
Siberiano Azul Lunar
B5                    E5                 
has perdido la nocion del tiempo
B5                          E5
quien sabra como volver a tu satelite
B5                         E5
quien sabra como...
B5                         E5
quien sabra como...regresar!
B5                      E5
he perdido la nocion del tiempo...
B5                        E5
quien sabra como...regresar!
B5                     E5
he perdido la nocion del tiempo...

Termina en B5 con samplers y esas cosas...


Algunas cosillas:

/: es slide, significa que arrastras hacia la nota, o sea con lo que tocaste en la nota anterior haces sonar
la nota indicada  ;-)

El tema se toca con un Pedal Delay (metal zone), pero lo podes tocar con una distorsion pesada normal 
y suena joya tambien.


Bueno, espero que les haya servido (este está bien sacado y tiene la letra bien :-). Cualkier cosa, comentarios
dudas, sugerencias, etc...

cececepe@ ó cccp@

suerte!
Suggest correction
Give kudos to tab author, rate the tab!
1 2 3 4 5
comments
print report bad tab
guest
You may want to rate the tab now too:
select rating
Wanna post a correction for this tab? Suggest correction