Oops, an error
Loading. Please wait.

Territorial Pissings Bass

16 views 1 this week
no commentswrite comment
1 2 3 4 5
3 more votes to show rating
add to favorites
launch autoscroll
font size
0
reset
guitar tuner
×
Best way to learn
"Territorial Pissings"
Autoscroll
slow
fast
+/-
esc
set tempo
stop
Esta es la base de bajo del cover de Nirvana que hacen en 
'Contagiandose de la Energía del Otro'
Es un simple punteo que se repite a lo largo de la canción

G--------------------------------------------------------------|
D--------------------------------------------------------------|
A------------------8-8-8-8-8-8-8-8--5-6-6--5-6-6--5-6-6--5-6-6-|
E-5-5-5-5-5-5-5-5----------------------------------------------|

G------------------------------------------------------------------|
D------------------------------------------------------------------|
A------------------8-8-8-8-8-8-8-8--5-5-5-5-5-5-5-5-5-5-5-5-5-5-5-5|
E-5-5-5-5-5-5-5-5--------------------------------------------------|


 Y aca esta la letra


Ahora soy universal
la raza no es opinión
Tengo que encontrar un lugar y escapar...

No conozco a Dios
si es que existe es mujer
Tengo que encontrar un lugar y escapar...

Siempre estas paranoico
nadie te persigue
Tengo que encontrar un lugar y escapar...


Eso es todo, para comentarios, pedidos, puteadas, etc. 
mandenmen un mail a neotokio3@

AGUANTE EL OTRO YO!!!!
LA CUMBIA ES UNA MIERDA!!!!
Suggest correction
Give kudos to tab author, rate the tab!
1 2 3 4 5
comments
print report bad tab
guest
You may want to rate the tab now too:
select rating
Wanna post a correction for this tab? Suggest correction