Oops, an error
Loading. Please wait.

Territorial Pissings Tab

10 views 1 this week
no commentswrite comment
1 2 3 4 5
3 more votes to show rating
add to favorites
×
Save as Personal and add changes to this tab that will be seen only by you. Learn more ›
×
You can save this tab as Personal to edit and correct it or add notes. All changes will be seen only by you. Learn more »
save as personal
new!
launch autoscroll
font size
0
reset
how to read this tab
guitar tuner
Autoscroll
slow
fast
+/-
esc
set tempo
stop
Este es el cover de Nirvana que hacen en 'Contagiandose de la Energía del Otro'
Trate de hacerla lo más posible a la original, pero quizas me fui para el lado 
de la versión original

 intro
e----------------------------------------------------------------------------
b----------------------------------------------------------------------------
g-----------------------------10-10-10-10-10-10-10---------------------------
d----7---7--7--7--7--7--7-----10-10-10-10-10-10-10-----12-12-12-12-12-12-----
a--7-7---7--7--7--7--7--7--0---8--8--8--8--8--8--8--0--12-12-12-12-12-12-----
e--5-----5--5--5--5--5--5--0------------------------0--10-10-10-10-10-10-----

e----------------------------------------------------------------------------
b----------------------------------------------------------------------------
g----------------------------------------------------------------------------
d--12-12-12-12-12-12-12-12-12-12-12------------------------------------------
a--12-12-12-12-12-12-12-12-12-12-12--0---------------------------------------
e--10-10-10-10-10-10-10-10-10-10-10--0---------------------------------------

e----------------------------------------------------------------------------
b----------------------------------------------------------------------------
g---------------------------10-10-10-10-10-10-10-----------------------------
d----7--7--7--7--7--7--7----10-10-10-10-10-10-10-----------------------------
a----7--7--7--7--7--7--7--0--8--8--8--8--8--8--8--0--------------------------
e----5--5--5--5--5--5--5--0-----------------------0--------------------------

e----------------------------------------------------------------------------
b----------------------------------------------------------------------------
g----------------------------------------------------------------------------
d--12-12-12-12-12-12-12-12-12-12-12-12-12-12-12------------------------------
a--12-12-12-12-12-12-12-12-12-12-12-12-12-12-12--0---------------------------
e--10-10-10-10-10-10-10-10-10-10-10-10-10-10-10--0---------------------------

este es el resto de la canción
e----------------------------------------------------------------------------
b----------------------------------------------------------------------------
g-------------------------10-10-10-10-10-10-10-------------------------------
d--7--7--7--7--7--7--7----10-10-10-10-10-10-10-----12-12-12-12-12-12-12-12---
a--7--7--7--7--7--7--7--0--8--8--8--8--8--8--8--0--12-12-12-12-12-12-12-12---
e--5--5--5--5--5--5--5--0-----------------------0--10-10-10-10-10-10-10-10---

e----------------------------------------------------------------------------
b----------------------------------------------------------------------------
g----------------------------------------------------------------------------
d--12-12-12-12-12-12-12------------------------------------------------------
a--12-12-12-12-12-12-12--0---------------------------------------------------
e--10-10-10-10-10-10-10--0---------------------------------------------------

y este es el final
e----------------------------------------------------------------------------
b----------------------------------------------------------------------------
g----------------------------------------------------------------------------
d----------------------------------------------------------------------------
a--------7--------7--------7--------7--------7--------7--------7--------7----
e--5--5--5--5--5--5--5--5--5--5--5--5--5--5--5--5--5--5--5--5--5--5--5--5----
   PM--      PM--    PM--     PM--     PM--     PM--     PM--     PM--

e----------------------------------------------------------------------------
b--------------------------------------------------------7-------------------
g----------------------------------------------------------7-----------------
d------------------------------------------------------------7---------------
a--------7--------7--------7--------7--------7--------7--------7-------------
e--5--5--5--5--5--5--5--5--5--5--5--5--5--5--5--5--5--5--------5-------------
  PM--      PM--    PM--     PM--      PM--     PM--

 end
e----------------------------------------------------------------------------
b----------------------------------------------------------------------------
g----------------------------------------------------------------------------
d--7-------------------------------------------------------------------------
a--7-------------------------------------------------------------------------
e--5-------------------------------------------------------------------------


Y esta es la letra

Ahora soy universal
la raza no es opinión
Tengo que encontrar un lugar y escapar...

No conozco a Dios
si es que existe es mujer
Tengo que encontrar un lugar y escapar...

Siempre estas paranoico
nadie te persigue
Tengo que encontrar un lugar y escapar...


Nota: Al final, Cristian comienza a zarparse, 
      pero no la transcribí

Eso es todo, para comentarios, pedidos, puteadas, etc. 
mandenmen un mail a neotokio3@

AGUANTE EL OTRO YO!!!!
LA CUMBIA ES UNA MIERDA!!!!
Suggest correction
Give kudos to tab author, rate the tab!
1 2 3 4 5
comments
print report bad tab
guest
Wanna post a correction for this tab? Suggest correction