Oops, an error
Loading. Please wait.

Tiki Tiki Nowa Tab

13 views 1 this week
no commentswrite comment
1 2 3 4 5
3 more votes to show rating
add to favorites
×
Save as Personal and add changes to this tab that will be seen only by you. Learn more ›
×
You can save this tab as Personal to edit and correct it or add notes. All changes will be seen only by you. Learn more »
save as personal
new!
launch autoscroll
font size
0
reset
how to read this tab
guitar tuner
Autoscroll
slow
fast
+/-
esc
set tempo
stop
Intro en  D   Am    C

Punteo de la intro
e-|---------------------0-|-----------------------------------|
b-|-0--3--1--0------------|-0--3--1--0------------------------|
g-|------------2--0--2/5--|-------------2--0---2/5--4--0--2---|
d-|-----------------------|---------------------------------0-|
a-|-----------------------|-----------------------------------|
E-|-----------------------|-----------------------------------|

D     Am     C       C
Perro callejero - tikitikinowa,
Ladra destructor - tikitikinowa,
El no tiene dueño - tikitikinowa,
Raza de matón - tikitikinowa,
Mea las iglesias - tikitikinowa,
Muerde al general - tikitikinowa,
Cuida tus mascotas - tikitikinowa,
Las va a asesinar.


aca se hace este punteo con el ritmo de la cancion y despues se
manda una improvisacion en la pentatonica de RE, escuchar bien la
cancion
e-|-/10--10--10--10-10------------------------------------------|
b-|-/10--10--10--10-10------------------------------------------|
g-|---------------------(aca hace notas de la pentatonica de re)|
d-|-------------------------------------------------------------|
a-|-------------------------------------------------------------|
E-|-------------------------------------------------------------|

SOY UN PERRO MALTRATADO,
PERSEGUIDO SOLITARIO,
SIN PAPELES NI FAMILIA
Y NUNCA FUI VACUNADO,
POR LA NOCHE ME ALIMENTO
DE LA BASURA DEL BARRIO,
NADA ME DETIENE
NI VIEJAS NI ALAMBRADOS,
PURA RABIA ES LO QUE TENGO,
MUCHO RESENTIMIENTO,
MUERDO TODO LO QUE TENGO,
SOY UN ARMA ANIMAL.
EL PODER DESCONOCIDO.
HAGO TODO LO PROHIBIDO,
NO SOY UN PERRO NORMAL.

con distro
e-|----------------------------------|
b-|----------------------------------|
g-|----------------------------------|
d-|--10--9--8--7--7/8/9/10-----------|
a-|--10--9--8--7--7/8/9/10-----------|
E-|--8---7--6--5--5/6/7/8------------|


final: se arpegia D, D+ y C

AGUANTE EL PUNK ROCK!
LUIS_DAMMIT
Suggest correction
Give kudos to tab author, rate the tab!
1 2 3 4 5
comments
print report bad tab
guest
Wanna post a correction for this tab? Suggest correction