Oops, an error
Loading. Please wait.

Traka Traka Tab

16 views 1 this week
no commentswrite comment
1 2 3 4 5
3 more votes to show rating
add to favorites
×
Save as Personal and add changes to this tab that will be seen only by you. Learn more ›
×
You can save this tab as Personal to edit and correct it or add notes. All changes will be seen only by you. Learn more »
save as personal
new!
launch autoscroll
font size
0
reset
how to read this tab
guitar tuner
Autoscroll
slow
fast
+/-
esc
set tempo
stop
INTRO

     D#5
e|----------------------------------------|
B|----------------------------------------|
G|---8-x-x-x-x-8-x-x-x-x-8-x-8-x-8-x-8----|
D|---8-x-x-x-x-8-x-x-x-x-8-x-8-x-8-x-8----| x2
A|---6-x-x-x-x-6-x-x-x-x-6-x-6-x-6-x-6----|
E|----------------------------------------|


     E5  F#5   D#5         E5  F#5   D#5 A5

e|--------------------------------------------|
B|--------------------------------------------|
G|---9-9-11-11-8-8-8-8-----9-9-11-11-8-8-9----|
D|---9-9-11-11-8-8-8-8-----9-9-11-11-8-8-7----| x2
A|---7-7-9--9--6-6-6-6-----7-7-9--9--6-6------|
E|--------------------------------------------|


Traka traka traka traka
Tra tra tra traka
traka traka traka traka
tra tra tra traah...


     F#5
e|-------------|
B|-------------|
G|-------------|  oooohh
D|---4-4-4-4---|
A|---4-4-4-4---|
E|---2-2-2-2---|


SOLO

e|---17-16-15-11-12--11-12-11---|
B|------------------------------|
G|------------------------------|
D|------------------------------| x4
A|------------------------------|
E|------------------------------|


FINAL

     D C#  D C#  D C#                   D  C# C  B
e|---------------------------------------------------|
B|---------------------------------------------------|
G|---7-6-6-7-6-6-7-6---7-6-6-7-6-6-7-6--7--6--5--4---|
D|---7-6-6-7-6-6-7-6---7-6-6-7-6-6-7-6--7--6--5--4---|
A|---5-4-4-5-4-4-5-4---5-4-4-5-4-4-5-4--5--4--3--2---|
E|---------------------------------------------------|
Suggest correction
Give kudos to tab author, rate the tab!
1 2 3 4 5
comments
print report bad tab
guest
Wanna post a correction for this tab? Suggest correction