Oops, an error
Loading. Please wait.

Vaselina Chords

version 2
version 2

Whole song

4 views 1 this week
no commentswrite comment
1 2 3 4 5
3 more votes to show rating
add to favorites
launch autoscroll
font size
0
reset
transpose
0
reset
simplify chords
display chords
guitar tuner
Autoscroll
slow
fast
+/-
esc
set tempo
stop
Help us to improve Ultimate-Guitar.com Take our survey!
×
INTRO

e||--------0--\
B||--------0-- \
G||--------1--  \14 veces
D||--------2--  /
A||----1/0-2-- /
E||--3-----0--/


ESTROFA (guitarra de fondo que hace el intro)
E
 conocí a una ninia, más que una ninia a una mujer
E
 ella me ama, ella me ama, ella me ama, ella me ama.

ESTRIBILLO
E5         A#5        E5     G5
 vaselina purifica mi cuerpo wo!
E5        A#5          E5     G5
 vaselina pura y dulce
E5         A#5        E5     G5
 vaselina purifica mi cuerpo wo!
E5        A#5          E5     G5
 vaselina pura y dulce

REPITE INTRODUCCION

INTERLUDIO 1:
E5        D5           C#5     A
 Tu debes hacer lo que quieras hacer en este mundo!

REPITE INTRODUCCION (4 veces)

SOLO
     /---BIEN RÁPIDO QUEDA JOYA---\
e||--15-12-15-12-15-12-15-15b-15b-16----------------------------------------------------------
B||--------------------------------------9-11-12-11-9----9-11-12-11-9----9-11-12-11-9-12b-13b-
G||-----------------------------------10--------------10--------------10----------------------
D||-------------------------------------------------------------------------------------------
A||-------------------------------------------------------------------------------------------
E||-------------------------------------------------------------------------------------------
y delira, y delira...(con más o menos las notas que usa durante la canción, mucha distorsión y 
usa la palanca...hay que improvisarlo...)

REPITE INTRODUCCIÓN

ESTROFA
E
 Decicdí que eras mía, no te irás si me amas
E
 Ella se queda, ella se queda, ella se queda, ella se queda

INTERLUDIO
E5        D5           C#5
 Tu debes hacer lo que quieras

ESTRIBILLO
E5         A#5        E5     G5
 vaselina purifica mi cuerpo wo!
E5        A#5          E5     G5
 vaselina pura y dulce
E5         A#5        E5     G5
 vaselina purifica mi cuerpo wo!
E5        A#5          E5     G5
 vaselina pura y dulce

FIN
E5, G5, E5, G5 (DEJA SONANDO)....RULO DE BATERÍA Y TERMINA JUNTO CON ELLA EN E5
Suggest correction
Give kudos to tab author, rate the tab!
1 2 3 4 5
comments
print report bad tab
guest
You may want to rate the tab now too:
select rating
Wanna post a correction for this tab? Suggest correction