Oops, an error
Loading. Please wait.

Velero Tab

19 views 1 this week
no commentswrite comment
1 2 3 4 5
3 more votes to show rating
add to favorites
launch autoscroll
font size
0
reset
how to read this tab
guitar tuner
Autoscroll
slow
fast
+/-
esc
set tempo
stop
Help us to improve Ultimate-Guitar.com Take our survey!
×
Velero - El otro yo

Intro:

E||----------------------|--------------------|----------------------|
B||----------------------|--------------------|----------------------|
G||----------------------|--------------------|----------------------|
D||-3-3-3-3-2-0-2--------|-3-3-3-3-2-0--------|-3-3-3-3-2-0---2------|
A||---------------0------|-------------0------|-------------5--------|
E||----------------------|--------------------|----------------------|

E||----------------------|--------------------|----------------------|
B||----------------------|--------------------|----------------------|
G||----------------------|--------------------|----------------------|
D||-3-3-3-3-2-0-2--------|-5-5-5-5-7-7--------|-5-5-5-5-7-7----------|
A||---------------0------|--------------------|----------------------|
E||----------------------|--------------------|----------------------|

E||----------------------|--------------------|----------------------|
B||----------------------|--------------------|----------------------|
G||-5-5-5-5-7-7----------|-5-5-5-5-7-7--------|-9-9-9-9-7-5-7-9------|
D||----------------------|--------------------|----------------------|
A||----------------------|--------------------|----------------------|
E||----------------------|--------------------|----------------------|

E||----------------------|
B||----------------------|
G||-9-9-9-9-7-5-9--------|
D||----------------------|
A||----------------------|
E||----------------------|


SI5           SOL5
Sigue velero, sigue más...
Sigue velero, sigue más...
Mi rumbo es la vela del barco
Del más allá y te puedo llevar
Cumplo tu idea de morir en la cama abrazados
Y correr de dimensión...

SOL5        SI5
Estrella de navegación
Guianos, no nos dejes perder,
LA brujula galática
Será el oraculo final.

Sigue velero, sigue más...
Sigue velero, sigue velero
Sigue más...
La orden es la orden de un ser universal
Que todo lo ve,
Y sos un angel en estas tierras
De bestias humanas.

Latidos del océano
En el crepúsculo boreal,
El huracán es inmortal
Euterpe dorada encántanos!
Hum dorada,
Ahahahahahahaha
Hum dorada,
Ahahahahahahaha
Hum dorada,
Ohohohohohohoho,
Hum dorada...
Suggest correction
Give kudos to tab author, rate the tab!
1 2 3 4 5
comments
print report bad tab
guest
You may want to rate the tab now too:
select rating
Wanna post a correction for this tab? Suggest correction