Oops, an error
Loading. Please wait.

Viaje De Luz Tab

4 views 1 this week
no commentswrite comment
1 2 3 4 5
3 more votes to show rating
add to favorites
launch autoscroll
font size
0
reset
how to read this tab
guitar tuner
Autoscroll
slow
fast
+/-
esc
set tempo
stop
Help us to improve Ultimate-Guitar.com Take our survey!
×
INTRO:
e|------------------------------------------------------|
B|------------------------------------------------------|
G|-------9-9--7--7-7---12/9---9/11-11-------------------|
D|--9-9--9-9--7--7-7---12/9---9/11-11--12---------------|
A|--9-9--7-7--5--5-5---10/7---7/9---9--12---------------|
E|--7-7--------------------------------10---------------|

e|------------------------------------------------------|
B|------------------------------------------------------|
G|-------9-9--7--7-7---12/9---9/11-11-11b---------------|
D|--9-9--9-9--7--7-7---12/9---9/11-11-11b---------------|
A|--9-9--7-7--5--5-5---10/7---7/9---9--9b---------------|
E|--7-7-------------------------------------------------|

e|------------------------------------------------------|
B|------------------------------------------------------|
G|-------9-9--7--7-7---12/9---9/11-11-------------------|
D|--9-9--9-9--7--7-7---12/9---9/11-11--12---------------|
A|--9-9--7-7--5--5-5---10/7---7/9---9--12---------------|
E|--7-7--------------------------------10---------------|

e|------------------------------------------------------|
B|------------------------------------------------------|
G|-------9-9--7--7-7---12/9---9/11-11-11b---------------|
D|--9-9--9-9--7--7-7---12/9---9/11-11-11b---------------|
A|--9-9--7-7--5--5-5---10/7---7/9---9--9b---------------|
E|--7-7-------------------------------------------------|

  D5P            G5P 
Este viaje es fantastico
 D5P                  G5P 
es luminoso descorporizandonos
  G5                     (*)
Barre tu alma entrando hacia la luz
  G5                            INTRO
el diablo espera tus movimientos

(*)
e|-------------------------------|
B|-------------------------------|
G|--1010-9-9--7--5---------------|
D|---x-x-x-x--x--x---------------|  X2
A|--8-8--7-7--5--3---------------|
E|-------------------------------|

 D5P                  G5P 
El arte de amar a los demas
  D5P                  G5P 
y perdonar a este puto mundo
  G5                   (*)
Y que pasa en tu tunel interno
     G5
caminan tus ratas,poguean tus ratas

  D5
Y cuanto sale vivir
   C5                 G5
y cuanto sale morir,oh oh oh
 D5                       C5
a la mierda con todos tus miedos
            G5
a la mierda con todo

INTRO

D5P                G5P 
Estas mordiendo corazones
D5P                            G5P 
estas combatiendo esta inmensa soledad
G5                      (*)
Y que pasa en tu tunel interno
  G5
poguean tus ratas,poguean tus ratas

   D5
Y cuanto sale vivir
   C5                  G5
y cuanto sale morir,oh oh oh
  D5                        C5
a la mierda con todos tus miedos
            G5
a la mierda con todo


SOLO:  D5-C5-G5 X4
e|--------------------------------------------------------|
B|--------------------------------------------------------|
G|--------7--9b7--7-9-----------7/10-9--7---7--7--9--7----|
D|--7--9---------------9--7---------------9---------------|
A|--------------------------------------------------------|
E|--------------------------------------------------------|

e|---------------------------------------------------------------|
B|---------------------------------------------------------------|
G|---------7--9--10-9-7----------7/9-7------------5/7------------|
D|---7--9-----------------9-7-------------9-7-9-7----------------|
A|---------------------------------------------------------------|
E|---------------------------------------------------------------|

FIN:
e|-------------------------------------------------------|
B|-------------------------------------------------------|
G|---7-7-7--7-7--7-7-7--------9-9--7---------------------|
D|---7-7-7--7-7--7-7-7---9-9--9-9--7---------------------|
A|---5-5-5--5-5--5-5-5---9-9--7-7--5---------------------|
E|-----------------------7-7-----------------------------|
Suggest correction
Give kudos to tab author, rate the tab!
1 2 3 4 5
comments
print report bad tab
guest
You may want to rate the tab now too:
select rating
Wanna post a correction for this tab? Suggest correction