Oops, an error
Loading. Please wait.

Cuantas Noches tab

version 2
version 2

Whole song

51 views 1 this week
no commentswrite comment
1 2 3 4 5
3 more votes to show rating
add to favorites
×
Save as Personal and add changes to this tab that will be seen only by you. Learn more ›
×
You can save this tab as Personal to edit and correct it or add notes. All changes will be seen only by you. Learn more »
launch autoscroll
font size
0
reset
how to read this tab
guitar tuner
edit
Autoscroll
slow
fast
+/-
esc
set tempo
stop
Intro:
       Dm                            F6             G6
e:|-------------------------------------------------------------|
B:|-------------------10-10-10-------10-10-------11/13-13-13-13-|
G:|---/12-12-10-10-10-10-9--10-10/12-------12-12-------12-12-12-|
D:|-------------------------------------------------------------|
A:|-------------------------------------------------------------|
E:|-------------------------------------------------------------|

Dm      F6           G6            Dm
Ay,      maldita miseria aléjate
F6               G6
Cuantas noches no has dormido
Dm      F6               G6      
Oh,      con las velas encendidas
Dm          F6            G6            Dm
Al mirar, como crece sin querer mi soledad

Dm            F6
Otra vez,      vuelves a gritar
G6            F6
Y tu corazón sangrando
Bb
Ay, como sangra

Mírame y aprendí a llorar 
Con la luna el mundo cambia
Ay, como cambia.

    G7         Bb              Dm
e:|--------------------------------5~---------|
B:|---------------------------------6~--------|
G:|----------------------------------7~-------|
D:|-------/5-8-7--7-8-7h8p7--5-3------7~------|
A:|-------------------------------------------|
E:|-------------------------------------------|

Tu,      ahogarás los golpes con tu mirada
Nunca más serán sentidos
Oh,      son las voces del olvido
Sin dudar, morirás al pie de tu altar

Y otra vez,      vuelves a gritar
Y tu corazón aún sangra
Ay, como sangra

Mírame y aprendí a llorar 
Con la luna el mundo cambia
Ay, como cambia.

G7         Bb                  Dm
   Y el dolor algún día se irá...
 
Solo:

        Dm                  F6                         G6                    Bb
e:|---------------------------------------------------------------------------------|
B:|-------5-6-5--------------------------------------------13-------13--------------|
G:|----/7-------7--7/14---12/14-12----12/14-12-------12/14----12/14----12/14-14-12--|
D:|--------------------------------15----------15-----------------------------------|
A:|---------------------------------------------------------------------------------|
E:|---------------------------------------------------------------------------------|

    C      Dm             
e:|-----------------------|
B:|-----------------------|
G:|-----------------------|
D:|---12p10-12------------|
A:|--------------10-10/12-|
E:|-----------------------|

           Dm                 F6           G6      Bb   C   Dm
e:|--------13---12------------10---8------------------------------------------------|
B:|------15--------10-------10-------6-----10---------------------------------------|
G:|----14-----------------10------------------12--10-10------------------5-5/7------|
D:|-----------------------------------------------------12--0-/7-5---5-7------------|
A:|----------------------------------------------------------------8----------------|
E:|---------------------------------------------------------------------------------|


Dm
      Uooh...

Y otra vez,      vuelves a gritar
Y tu corazón aún sangra
Ay, como sangra

Mírame y aprendí a llorar 
Con la luna el mundo cambia
Ay, como cambia.

G7            Bb                Dm
Y el dolor algún día se irá...
G7            Bb                Dm
Y el dolor algún día se irá...
G7            Bb                Dm
Y el dolor algún día se irá.


\XX____/            \XX____/
 |||||0                   |||||0 3
 |||0||                   |||0|| 4
 ||0|0|                   ||0|0| 5
 ||||||                   |||||| 6
   F6                     G6
Suggest correction
Creating personal tab
Creating personal tab
You can edit any tab online and save it as your Personal.

You can edit, replace or remove any tab part or add personal notes – all changes will be seen only by you.

Personal tabs can be accessed anytime from any device, even offline.
Learn more »
Give kudos to tab author, rate the tab!
1 2 3 4 5
comments
print report bad tab
guest
Wanna post a correction for this tab? Suggest correction