Oops, an error
Loading. Please wait.

El No Te Quiere bass

by El Plan
22 views 1 this week
no commentswrite comment
1 2 3 4 5
3 more votes to show rating
add to favorites
×
Save as Personal and add changes to this tab that will be seen only by you. Learn more ›
×
You can save this tab as Personal to edit and correct it or add notes. All changes will be seen only by you. Learn more »
launch autoscroll
font size
0
reset
guitar tuner
edit
Autoscroll
slow
fast
+/-
esc
set tempo
stop
intro rapido
G|-----------------|
D|-----------------|
A|---------0-0-1-2-|
E|-3-3-4-4---------|

intro instrumental
G|----------|----------|-----------------------|
D|--5-4-2-2-|-4--------|-5-4-2-2--4--4---------|
A|----------|--4-5-4s5-|---------------4-3-2-0-|
E|----------|----------|-----------------------|

G|--------------------|------------|-----------------------|
D|--5-4-2-2s4---------|-5-4-2-2--0-|-4-3-0-----------2-3-4-|
A|------------4-5-4s5-|------------|--------3s4s5--4-------|
E|--------------------|------------|-----------------------|


   El no te quiere como yo te quiero
G|------------------2----3-----3---2------|
D|----0------4-----------------------4----|
A|--------------------------------------0-|
E|----------------------------------------|

   el solo puede darte falso amor
G|----------------------|
D|-0-4-0-------------2--|
A|-------2------2-4-----|
E|------------0---------|

   olvidalo si puedes vida mia
G|------------------|
D|-------2-4-2------|
A|---2-4-------4-2--|
E|-0----------------|

   no dejes que se acabe nuestro amor
G|-----------------------------|
D|-4-2----------2-4--6-4-2-----|
A|-----4-2-0--4------------4---|
E|-----------------------------|

   Pero si tu lo quieres demasiado
G|------------------2----3-----3---2------|
D|----0------4-----------------------4----|
A|--------------------------------------0-|
E|----------------------------------------||

  posible estoy pidiendote mas
G|-2-1-0--------------|
D|-------0----------0-|
A|--------------0-3---|
E|------------3-------|

   Entonces yo me marchare   pero mi amor te dejare
G|-------------------------|---------------|
D|-------------------------|-0-3-4-2-------|
A|----------2------4-3-2-0-|---------------|
E|-0-----------------------|---------------|

   porque mi amor te pertenece a ti
G|-----------------------|
D|-0-4-3-4-5----4-3-2-0--|
A|-----------------------|
E|-----------------------|

   y tu cuando cuenta te des
G|-----------------|
D|-----------------|
A|---3--4-3-2--0---|
E|-3---------------|

   lo falso que otro amor es
G|-----------------|
D|-0---4-3-2--0----|
A|-----------------|
E|-----------------|

recuerda que puedes volver a mi
G|--------------|--------------|
D|--4-3-2----0--|--------------|
A|---------4----|--------1-2---|
E|--------------|--3-3-4-------|


  fin
G|---------------------|
D|-4-3-------------2-4-|
A|-----0--3s4s5--4-----|
E|---------------------|

            
            
Suggest correction
Creating personal tab
Creating personal tab
You can edit any tab online and save it as your Personal.

You can edit, replace or remove any tab part or add personal notes – all changes will be seen only by you.

Personal tabs can be accessed anytime from any device, even offline.
Learn more »
Give kudos to tab author, rate the tab!
1 2 3 4 5
comments
print report bad tab
guest
Wanna post a correction for this tab? Suggest correction