Oops, an error
Loading. Please wait.

Amor Amor tab

27 views 1 this week
no commentswrite comment
1 2 3 4 5
3 more votes to show rating
add to favorites
×
Save as Personal and add changes to this tab that will be seen only by you. Learn more ›
×
You can save this tab as Personal to edit and correct it or add notes. All changes will be seen only by you. Learn more »
launch autoscroll
font size
0
reset
how to read this tab
guitar tuner
edit
Autoscroll
slow
fast
+/-
esc
set tempo
stop
Intro

E----7-5-8-7-5-7-5h7p5-3-3-3------------
B---------------------------------------
G--7-------------------------2-4-3-4-3-4
D---------------------------------------
A---------------------------------------
E---------------------------------------

E--------------------------2-2h3--------
B-2-2h3-3-3-3--2-3-2-3-2-3-------5---5/-
G----------------------------------5----
D---------------------------------------
A---------------------------------------
E---------------------------------------

                              (esta parte como rasguido)
E----15-14-15-14-12-----------10--------
B-12----------------15-15-15--10--------
G-----------------------------11--------
D-----------------------------12--------
A---------------------------------------
E---------------------------------------

E---------3-2-3-5-----------------------
B-5-3-5------------3-1-3-7-5-7-8--------
G---------4-2-4-5-----------------------
D-5-4-5------------4-2-4-7-5-7-9--------
A---------------------------------------
E---------------------------------------

E-----------------------7-8-7h8p7-7-----
B-1-0---5-4-5-7-8-8---8-----------------
G-----2---------------------------------
D-2-0---5-5-5-7-9-9---------------------
A-----3---------------------------------
E---------------------------------------

E---------------------------------------
B----------------------10-8h10p8vvv-----
G---7-9-7h9p7---------------------------
D-9-----------10-9-7-7-h9---------------
A---------------------------------------
E---------------------------------------


             SOL                              RE
Que locura he cometido, ya tus padres no me quieren
                          DO          RE            SOL
Si es que amarte es un pecado nunca mas tendré perdón
                        B7                       MIm
Siento transcurrir el tiempo mas preciso de tus besos
                   SOL                            RE
De tus ojos de tus manos, de tus palabras de amor

                 SOL                        RE
Deberías comprenderme y entender mis pensamientos
                            DO        RE             SOL
Que en ningún lugar del mundo volvería a encontrar amor
                        B7                      MIm
Uno así como el que siento desde que estoy a tu lado
                           SOL           RE            SOL
Que es tan grande y tan sincero que no hay comparación

      DO   RE
Amor amor
            SOL     MIm
 no me abandones
   DO       RE
Te rogare
         SOL   SOL7
que reflexiones

       DO     RE
Tu juventud,
        SOL    SOL - DOm MIm
 y tu inocencia
       DO     RE
Reclama amor
      SOL
y libertad

E----7-5-8-7-5-7-5h7p5-3-3-3------------
B---------------------------------------
G--7-------------------------2-4-3-4-3-4
D---------------------------------------
A---------------------------------------
E---------------------------------------

E--------------------------2-2h3--------
B-2-2h3-3-3-3--2-3-2-3-2-3-------5---5/-
G----------------------------------5----
D---------------------------------------
A---------------------------------------
E---------------------------------------


E----15-14-15-14-12-----------10--------
B-12----------------15-15-15--10-13-12-10
G-----------------------------11--------
D-----------------------------12--------
A---------------------------------------
E---------------------------------------
E----------------------------
B-8--7--8--------------------
G----------------------------
D-9--7--9--9-9h10-9h10p9-----
A------------------------10--
E----------------------------

E-----------------------3----
B-----------------------3----
G-----------------------4----
D-----------------------5----
A-10-9-8----------------5----
E--------10-10-9-8-7vv--3----


Bueno locos esta cancion va dedicada a todos los pibes
cumbieros de villa lujan. espero que les guste cualuquier
duda a mi correo.
                  AgUnTe El CuErVo !!!

            
            
Suggest correction
Creating personal tab
Creating personal tab
You can edit any tab online and save it as your Personal.

You can edit, replace or remove any tab part or add personal notes – all changes will be seen only by you.

Personal tabs can be accessed anytime from any device, even offline.
Learn more »
Give kudos to tab author, rate the tab!
1 2 3 4 5
comments
print report bad tab
guest
Wanna post a correction for this tab? Suggest correction