Oops, an error
Loading. Please wait.

Cuando Un Amor Se Va tab

version 2
version 2

Whole song

43 views 1 this week
no commentswrite comment
1 2 3 4 5
3 more votes to show rating
add to favorites
×
Save as Personal and add changes to this tab that will be seen only by you. Learn more ›
×
You can save this tab as Personal to edit and correct it or add notes. All changes will be seen only by you. Learn more »
launch autoscroll
font size
0
reset
how to read this tab
guitar tuner
edit
Autoscroll
slow
fast
+/-
esc
set tempo
stop
Cuando un amor se va (si un amor se va) - El Polaco

*Version Original*

1 15/17-17-17-15h17p15-15-15----------15-15h17-17------
2 ---------------------------------15------------------
3 ------------------------------16---------------------
4 ---------------------------17------------------------
5 -----------------------------------------------------
6 -----------------------------------------------------

1 15h17p15-15-15--|-----12-15-15/17-17-15p17h15-15-15-|
2 ----------------|--12-------------------------------|
3 ----------------|12------------- -------------------|
4 ----------------****************repite***************
5 -----------------------------------------------------
6 -----------------------------------------------------

1 --|-------12-15-15/17-17-15p17h15-15-15----|---------
2 --|----13----------------------------------|---------
3 --|-12-------------------------------------|---------
4 --***************repite*********************---------
5 -----------------------------------------------------
6 -----------------------------------------------------

1 -------12-15/19-19-19--17h19p17-17-17-17-------------
2 ----13-----------------------------------------------
3 -12--------------------------------------------------
4 -----------------------------------------------------
5 -----------------------------------------------------
6 -----------------------------------------------------

1 15-17-15-14h15p14-14-14-----14---------14-15-17-14-15
2 -------------------------17----17-15-----------------
3 -----------------------------------------------------
4 -----------------------------------------------------
5 -----------------------------------------------------
6 -----------------------------------------------------

1 h15*////*--------------------------------------------
2 -----------------------------------------------------
3 -----------------------------------------------------
4 -----------------------------------------------------
5 -----------------------------------------------------
6 -----------------------------------------------------

*////*

Al minuto 1:41 hay un punteo igual al de la intro, pero bajado
8 lugares (o semitonos), con lo que la 1ra nota que se toca en
la ubicacion 15 se la toca en la ubicacion 7.

Luego al final se repite la intro pero con una variacion al final
en la parte marcada *////*, quedaria la ultima parte asi:

1 h15*////*15-----9-9-9-9?7h9p7-6?4h6p4-2--------------
2 -----------------------------------------------------
3 -----------------------------------------------------
4 -----------------------------------------------------
5 -----------------------------------------------------
6 -----------------------------------------------------
                               by Froz

Esta Perfecta, la anterior (guillermo) esta mal.
Cualquier duda a zekta_frozh3nt@
Suggest correction
Creating personal tab
Creating personal tab
You can edit any tab online and save it as your Personal.

You can edit, replace or remove any tab part or add personal notes – all changes will be seen only by you.

Personal tabs can be accessed anytime from any device, even offline.
Learn more »
Give kudos to tab author, rate the tab!
1 2 3 4 5
comments
print report bad tab
guest
Wanna post a correction for this tab? Suggest correction