Oops, an error
Loading. Please wait.

Yo Tengo Tu Love Tab

version 1
version 1

Whole song

257 views 1 this week
no commentswrite comment
1 2 3 4 5
1 last vote to show rating
add to favorites
launch autoscroll
font size
0
reset
how to read this tab
guitar tuner
×
Best way to learn
"Yo Tengo Tu Love"
Autoscroll
slow
fast
+/-
esc
set tempo
stop
INTRO: G-D-Em-D

                      G                 D
e-----0p3p0-------------3-----------------2--------
b--------0p3p0----------3--3-------0------3--3-----
g-----------0p2p0-------0--0----0p2p0-----2--2-----
d--------------0p2p0-------0------------0----0-----
a--------------------------------------------------
e----------------------3---------------------------


         Em            C              G
e----------0-------------0-0------------3--3-------
b-----0----0-0------0----1-1------0-----3--3-------
g--0p2p0---0-0---0p2p0---0-0---0p2p0----0--0-------
d------------2-------------------------------------
a----------------------3---3-----------------------
e--------0---0------------------------3----3-------


     G
No tengo un celular con diamantes
     D
De muchos kilates pa? impresionar,
     Em
Pero tengo una buena conversación,
     C
Con la que te enamoro más y más!
     G
No tengo un Jet Privado
     D
que compré con la Black Card
     Em
Pero tengo una guagua vieja
     C
Con la que siempre vamos a pasear.


     G
No tengo ropa de Versace,
     D
Ni musculatura dura para enseñar,
     Em
Pero tengo un par de brazos desnudos
     C
Que muy fuerte te van abrazar.

     G
No soy como Mariah Carey
     D
Con un jacuzzi lleno de agua Evian,
     Em
Pero tengo una chozita en la playa
     C
Pa' que te bañes con aguita de mar.


(En esta parte solo marcas el tiempo)

   G
Ricky tiene cara linda,
   G
Enrique Iglesias los millones
   D
Aventura las mansiones
   D
Pero...


Coro:

                G
Yo tengo tu amor,
                D
I got your love,
               Em
Yo tengo tu amor
                C
Yo tengo tu love (x2)

G-D-Em-C

    G
El tiempo vale más que un Rolex
    D
El amor más que un table dance.
    Em
El amigo más que un peso en el bolsillo
    C
Como el que tú acabas de gastar.

    G
Hablar vale más que un iPhone
    D
Y más cuando alguien te quiere escuchar.
    Em
Saber vale más que el diploma
    C
Como el que tú acabas de enmarcar.

    G
El compromiso vale más que el anillo
    D
No hay palabra si no hay corazón
    Em
El silencio vale más que un grito
    D
Cuando el grito no es por amor.

    G
Tu mirada vale más que el oro
    D
Enseñarte vale más que un tabú
    Em
Y aunque pueda tenerlo todo, todo,
    C
Nunca hay nada si me faltas tú


(Se marca el tiempo igual a la parte anterior)

    G
Chayanne baila bien bonito,
    G
Fonsi canta afinaito
    D
Juanes los grammys latinos
    D
Pero...

Coro:
               G
Yo tengo tu amor,
               D
I got your love,
               Em
Yo tengo tu amor!
               C
Yo tengo tu love! (x2)


     G                    D
e----3h7-7-7-7-7-8-8-7-5--5-5-5-5-7-7-5-3--------------
b----3h8-8-8-8-8-8-8-8-7--7-7-7-7-7-7-7-5--------------
g------------------------------------------------------
d------------------------------------------------------
a------------------------------------------------------
e------------------------------------------------------

    Em                  C                     G
e----------0p2p3---0-3--2/5-5-5h3--2/5-5-5h3-2h3-------
b---0p1p2p3-------------3/5-5-553--3/5-5-5h3-3---------
g------------------------------------------------------
d------------------------------------------------------
a------------------------------------------------------
e------------------------------------------------------


   G
No estoy entre los más bellos
   D
De People en Español
   Em
Pero tu mirada me dice
   C
Que soy el Brad Pitt de tu corazón, je!


(Se marca el tiempo igual a las partes anteriores)

    G
Lady Gaga gana en Twitter
    G
Y también en el facebook,
    D
Justin Bieber en YouTube
    D
Pero...

Coro:
              G
Yo tengo tu amor,
              D
I got your love,
             Em
Yo tengo tu amor!
              C
Yo tengo tu love! (x4)


Espero que les haya gustado ya que es mi primer partitura.

Nota:El intro es rapido solamente escuchen la cancion.

En el intro "p" significa Pull.
Pull: significa jalar. Consiste en pulsar una cuerda y jalar
después el dedo que pisa para obtener una nota más grave.
Suggest correction
Give kudos to tab author, rate the tab!
1 2 3 4 5
comments
print report bad tab
guest
You may want to rate the tab now too:
select rating
Wanna post a correction for this tab? Suggest correction