Oops, an error
Loading. Please wait.

Cancion De La Carretera Tab

66 views 1 this week
no commentswrite comment
1 2 3 4 5
3 more votes to show rating
add to favorites
launch autoscroll
font size
0
reset
how to read this tab
guitar tuner
×
Best way to learn
"Cancion De La Carretera"
Autoscroll
slow
fast
+/-
esc
set tempo
stop
Intro: G - Am - C - G

G                                       Am
Hoy no comprendo/  De donde viene ese dolor
          C                       G
Si solo ayer cerré la puerta y me fui.
         G                         Am
¿Sabes mujer? La carretera siempre trata bien
             C                         G
Al perro que busca/ Pero nunca al gato fiel.

G - Am - C - G

G                                 Am
Seguí una estrella/ Y nunca me perdí
          C                            G
Jure a la luna/ El prenderle fuego al sol
                G                     Am
Le disparé al silencio/ Y creo que le di
        C                                  G
Pero ese premio mi amor/ (Dios nunca me lo dio).

        Em          Bbm        Am           C
Si las cadenas/ Me atrapan otra vez/ Juro mujer
                       G            Em   Bbm         Am
Solo es por volverte a ver/ La carretera siempre trata bien
             C                         G
Al perro que busca/ pero nunca al gato fiel.

[G - Am - C - G] x 2

             G                    Am
Seguí una estrella/ Y nunca me perdí
          C                       G
Jure a la luna/ Prenderle fuego al sol
                G                     Am
Le disparé al silencio/ Y creo que le di
        C                                  G
Pero ese premio mi amor/ (Dios nunca me lo dio).

        Em          Bbm        Am           C
Si las cadenas/ Me atrapan otra vez/ Juro mujer
                        G           Em   Bbm         Am
Solo es por volverte a ver/ La carretera siempre trata bien
             C                         G
Al perro que busca/ pero nunca al gato fiel.

[G - Am - C - G]

e|---------------------------------------------------------------------|
B|-------5---------------------------------------5---------------3-5-3-|
G|-2s4~~---4~~-4s2-0-2s4-2~~-2b4r2p0-2s4-2~~-2s4---4s2-0-2-2s4~~-------|
D|---------------------------------------------------------------------|
A|---------------------------------------------------------------------|
E|---------------------------------------------------------------------|

e|---------------------------------------------------------------------|
B|---------------------------------------------------------------------|
G|4s2-0-2-0--------0-2b4-2b4-2b4r2p0-2-0h2-0---------2b4r2p0-2b4r2p0-2-|
D|-----------2-0-2---------------------------2~~-0-2-------------------|
A|---------------------------------------------------------------------|
E|---------------------------------------------------------------------|

e|----------------------3-5---3----------------------------------------|
B|--------3-5---3-5~~-------3---3s5-3~----------------------------10b12|
G|2~~-2s4-----4------------------------4s2-0-----0-2b4-2-0---0---------|
D|-------------------------------------------0-2-----------2---2-------|
A|---------------------------------------------------------------------|
E|---------------------------------------------------------------------|


e|--------------------10-------------------10--------------------------|
B|-10b12-8-10b12r10p8----8~~--8-10b12r10p8----8~~-10b11--parte rapida--|
G|---------------------------------------------------------------------|
D|---------------------------------------------------------------------|
A|---------------------------------------------------------------------|
E|---------------------------------------------------------------------|

e|----------------------------------------------------------------------|
B|----8-10b12b12b12b12b12r10p8---10b12--8-10---8-10b12r10-8---8-10-10b12|
G|9~~--------------------------9-------------9--------------9-----------|
D|----------------------------------------------------------------------|
A|----------------------------------------------------------------------|
E|----------------------------------------------------------------------|

y sigue

Explicación:

   b = estirar la cuerda
   p = pull off (levantar el dedo)
   h = hammer on (bajar el dedo)
   10b12r10 = levantar y volver a la misma nota
   ~~~ = vibrato (mantener sonando)
   s = slide
Suggest correction
Give kudos to tab author, rate the tab!
1 2 3 4 5
comments
print report bad tab
guest
You may want to rate the tab now too:
select rating
Wanna post a correction for this tab? Suggest correction