Oops, an error
Loading. Please wait.

Como Dos Capullos Tab

9 views 1 this week
no commentswrite comment
1 2 3 4 5
3 more votes to show rating
add to favorites
launch autoscroll
font size
0
reset
how to read this tab
guitar tuner
Autoscroll
slow
fast
+/-
esc
set tempo
stop
Help us to improve Ultimate-Guitar.com Take our survey!
×
Intro

1|--9/12-12----------------------------------|--|
2|----------12-12/14-14/12-12/14-14/12-12/14-|--|
3|-------------------------------------------|x2|
4|-------------------------------------------|--|
5|-------------------------------------------|--|
6|-------------------------------------------|--|

1|-------9---------------|
2|--9/12---12/9----------|
3|--------------11~------|
4|-----------------------|
5|-----------------------|
6|-----------------------|

la primera guirarra siempre acompaña las
estrofas haciendo un punteo en base a las 4 notas

 SOLO

1|--9/12~/9--16/9--------------------|--|
2|-----------------12/14/12----------|--|
3|-----------------------------------|x2|
4|-----------------------------------|--|
5|-----------------------------------|--|
6|-----------------------------------|--|

1|-------9---------------|
2|--9/12---12/9----------|
3|--------------11~------|
4|-----------------------|
5|-----------------------|
6|-----------------------|


riff

1|------------------------------------------------------|
2|-12/14-14/12--12/14-14/12--12/9--9/7-7/9~---9/12-14-12|
3|------------------------------------------------------|
4|------------------------------------------------------|
5|------------------------------------------------------|
6|------------------------------------------------------|
Suggest correction
Give kudos to tab author, rate the tab!
1 2 3 4 5
comments
print report bad tab
guest
You may want to rate the tab now too:
select rating
Wanna post a correction for this tab? Suggest correction