Oops, an error
Loading. Please wait.

Vela Tab

version 1
version 1

Whole song

16 views 1 this week
no commentswrite comment
1 2 3 4 5
3 more votes to show rating
add to favorites
launch autoscroll
font size
0
reset
how to read this tab
guitar tuner
Autoscroll
slow
fast
+/-
esc
set tempo
stop
Help us to improve Ultimate-Guitar.com Take our survey!
×
INTRO:

Punteo(1er parte)

e|-------------------------------------|--------------------------|
B|-----------------------------8-------|--------------------------|
G|-5p7~--9-10-7--9-10-7--9-10---10-9-7-|-----5-7~--9-10-7--10-9-7-|
D|-------------------------------------|-5-7----------------------|
A|-------------------------------------|--------------------------|
E|-------------------------------------|--------------------------|

e|--------------------------|
B|------8----8-8/10-8-------|
G|-9-10---10---------10-9~--|
D|--------------------------|
A|--------------------------|
E|--------------------------|

Punteo(2da parte)

e|------------------------|-------------------------|
B|------------8-----------|---------8---------------|
G|-7~-7-9-10---10-9--5-7~-|-7-9-10---10-9-10-9-7-7~-|
D|------------------------|-------------------------|
A|------------------------|-------------------------|
E|------------------------|-------------------------|

e|---------------------------------------------|
B|--------8--------10-8---8--------------------|
G|-7-9-10--10-9-10------10---10-9-10-9-7-9-7-5-|
D|---------------------------------------------|
A|---------------------------------------------|
E|---------------------------------------------|

e|------------------------------------------------|
B|-----------8-------------------8----------------|
G|-7~-7-9-10---10-9-5-7~--7-9-10---10-9-10-9-7-7~-|
D|------------------------------------------------|
A|------------------------------------------------|
E|------------------------------------------------|

e|---------------------------------------|
B|--------8---------10-8----8----8-8/10--|
G|-7-9-10---10-9-10------10---10---------|
D|---------------------------------------|
A|---------------------------------------|
E|---------------------------------------|

D5               F5
Alas rotas, sueños quebrantados
D5               C5
que no te dejan dar un paso atras
D5               F5
Y da perdida al otro lado,
D5               C5
deseos que son tierras sin conquistar

punteo(2da parte)

D5                 F5
Todo ha terminado, no queda nada
D5               C5
ni siquiera un pedazo de aquel lugar
D5                     F5
En donde el tiempo fue nuestro aliado
D5                 C5
me enferma tenerlo que aceptar

               Bb5    C5   D5
Que te has evaporado sin dejar
        Bb5    C5    D5
Huellas que me hagan llegar
       Bb5    C5      D5      A5
A tu cuerpo y liberarme la piel

       D5      Bb5
Donde estas?
        F5      C5
Me has dejado solo tempestad
       D5      Bb5
Deja ya
        C5
De matarme sin piedad
       D5     Bb5
Donde estas?
        F5      C5
He perdido hasta la identidad
       D5      Bb5
Que más da,
      C5
Desde que tu ya no estas
          D5 C5 Bb5              D5 C5
No me queda nada,     no me queda nada
          D5 C5 Bb5       A5
No me queda nada      de ti

Solo?
e|------------------------|-------------------------|
B|------------8-----------|---------8---------------|
G|-7~-7-9-10---10-9--5-7~-|-7-9-10---10-9-10-9-7-7~-|
D|------------------------|-------------------------|
A|------------------------|-------------------------|
E|------------------------|-------------------------|

e|---------------------------------------------|
B|--------8--------10-8---8-----8-8/10-/13-/15-|
G|-7-9-10--10-9-10------10---10----------------|
D|---------------------------------------------|
A|---------------------------------------------|
E|---------------------------------------------|

e|-17-17-15----------------|----------17-15-------------------|
B|----------18-17-15----15-|-15-17-18-------18-17-15----15-15-|
G|-------------------17----|-------------------------17-------|
D|-------------------------|----------------------------------|
A|-------------------------|----------------------------------|
E|-------------------------|----------------------------------|

e|----------------------------|---------------------------|
B|----------12p13h15-15p17h18-|-17-15--------18-17--------|
G|-12p14h15-------------------|-------17-17--------17-19~-|
D|----------------------------|---------------------------|
A|----------------------------|---------------------------|
E|----------------------------|---------------------------|

Alas rotas, sueños quebrantados
Que no te dejan dar un paso atrás
Y da perdida al otro lado,
Deseos que se vuelven a esfumar

Es algo que no puedes evitar
Un temor sin controlar
Juego que te hace perder el sentido del ayer

Donde estas?....

El solo no stara de 10 pero seguro es un aporte
para q alguien lo suba mejor. Saludos

AGUANTE EL SOLDADO!!
Suggest correction
Give kudos to tab author, rate the tab!
1 2 3 4 5
comments
print report bad tab
guest
You may want to rate the tab now too:
select rating
Wanna post a correction for this tab? Suggest correction