Oops, an error
Loading. Please wait.

El Cartero Tab

46 views 3 this week
no commentswrite comment
1 2 3 4 5
3 more votes to show rating
add to favorites
launch autoscroll
font size
0
reset
how to read this tab
guitar tuner
×
Best way to learn
"El Cartero"
Autoscroll
slow
fast
+/-
esc
set tempo
stop
INTRO:

          Em              SOL
e|0-3-2-0-3-7-5-3-3-7-5-3-7-10-8-7-----------------
b|-------------------------------------------------
G|-------------------------------------------------

sigue aqui por falta de espacio

           C                                    Em
e|7-8-10-12-12-12-12-12-12-12-12-15-12-15-12-15-12-
b|-------------------------------------------------

repetir dos veces intro

1.-
       MIm             SOL       MIm
el cartero a llegado y trajo un carta
      MIm             SOL       RE
la he leido y me dices olvidate de mi
      MIm                 RE
y mi vida se extingue leyendo tu adios
        MIm           SOL        RE      MIm
en esta carta esta el fin que tu diste a mi amor


2.-
       MIm             SOL       MIm
hay cartero hay cartero llevate esta carta
      MIm             SOL       RE
pues en ella le digo no te olvidare
      MIm                 RE
tu recuerdo lo llevo muy dentro de mi
        MIm           SOL        RE      MIm
si no vienes yo siento un inmenso dolor

repetir intro 2 veces

coro
  MIm         SOL    RE           MIm
cartero por favor entregale esta carta
  MIm         SOL    RE           MIm
cartero por favor y dile que la recuerdo
  MIm         SOL    RE           MIm
cartero por favor entregale esta carta
  MIm         SOL    RE           MIm
cartero por favor y dile que la quiero


e|-3h-5-7-3-7-5-3-7-5-3-7-5-3-7-5-3-7-10--
b|----------------------------------------

e|-3h-5-7-3-7-5-3-7-5-3-7-5-3-7-5-0-------
b|----------------------------------------

e|-3h-5-7-3-7-5-3-7-5-3-7-5-3-7-5-3-7-10--
b|----------------------------------------

e|-3h-5-7-3-7-5-3-7-5-3-7-5-3-7-5-0--------
b|-----------------------------------------

repetir 2.-

repetir coro
Suggest correction
Give kudos to tab author, rate the tab!
1 2 3 4 5
comments
print report bad tab
guest
You may want to rate the tab now too:
select rating
Wanna post a correction for this tab? Suggest correction