Oops, an error
Loading. Please wait.

Ay Amor Tab

62 views 3 this week
no commentswrite comment
1 2 3 4 5
3 more votes to show rating
add to favorites
launch autoscroll
font size
0
reset
how to read this tab
guitar tuner
×
Best way to learn
"Ay Amor"
Autoscroll
slow
fast
+/-
esc
set tempo
stop
QUe tal a todos los chapines amantes de la musik nacional .
aqui les dejo el solito de ay amor  todavia le falta pero
con esto lo tiene todo ;) .


en la parte del solo se tocan estos acordes:

E   C#m    A    B


e||-------------------------||-----------------||---------------||
B||-------------------2-2---||-----------------||--------2-2----||
G||----------------1-1---0-2||/4-4-4-4h6-4-----||-----1-1---0-2-||
D||-------------2-2---------||------------6-5-2||--2-2----------||
A||-------------------------||-----------------||---------------||
E||-------------------------||-----------------||---------------||


||-----------------||--------------------------||
||-----------------||-----5-4-5----------------||
||/4-4-4-4h6-4-----||-4h6------6-4-6-4---------||
||------------6-7-9||---------------------6-4-2||
||-----------------||--------------------------||
||-----------------||--------------------------||

bueno todavia me falta el final pero con esto  ya tiene casi
que todo el solo espero y les sirba y si peuden agregarle algo
me contactan  JAVILIM_ALONZO@
Suggest correction
Give kudos to tab author, rate the tab!
1 2 3 4 5
comments
print report bad tab
guest
You may want to rate the tab now too:
select rating
Wanna post a correction for this tab? Suggest correction