Oops, an error
Loading. Please wait.

Skalavera Chords

546 views 3 this week
1 commentread comment
1 2 3 4 5
please rate
add to favorites
launch autoscroll
font size
0
reset
transpose
0
reset
display chords
guitar tuner
Tab Pro tools
  • play this tab
  • loop segment
  • change instrument
  • show fretboard
  • metronome
×
Best way to learn
"Skalavera"
Autoscroll
slow
fast
+/-
esc
set tempo
stop
Difficulty
novice
G                     Bm
  Si miras como la vida pasa ya y asi se va y mientras
 G
  el agua corre y todo asi vuelve a empezar
Bm
  yo me sorprendo lo que el amor puede lograr.

   G                           Bm
e|-----------------------10----------------------|
B|--------------------------12-------------------|
G|-11/12-12---12-12-12-12------11---11-11-11/9-9-| (2x)
D|-----------------------------------------------|
A|-----------------------------------------------|
E|-----------------------------------------------|

G                        Bm
  Si formas suenos que giren a tu voluntad yo digo
G
  tierra mojada olor a pura libertad
Bm
  grito tu nombre el viento lo puede llevar.

   G                           Bm
e|-----------------------10----------------------|
B|--------------------------12-------------------|
G|-11/12-12---12-12-12-12------11---11-11-11/9-9-| (2x)
D|-----------------------------------------------|
A|-----------------------------------------------|
E|-----------------------------------------------|

C           D                 C
  One more time empieza otra vez
         D                     C
  I feel fine quiero verte crecer
       D          Em      C
  Admirarte y gritar tu nombre.


CORO:
G                  D
  Todas las flores que me regalaste
Em              C
  hoy de nuevo vuelven a alegrarse
G                 D
  pintas mi vida mientras tu caminas
Em                   C
  quiero gritarlo que viva la vida    (2x)


G                     Bm
  Si miras como la vida pasa ya y asi se va y mientras
 G
  el agua corre y todo asi vuelve a empezar
Bm
  yo me sorprendo lo que el amor puede lograr
G                        Bm
  Si formas suenos que giren a tu voluntad yo digo
G
  tierra mojada olor a pura libertad
Bm
  grito tu nombre el viento lo puede llevar.

C           D                 C
  One more time empieza otra vez
         D                     C
  I feel fine quiero verte crecer
       D          Em      C
  Admirarte y gritar tu nombre


Repite Coro.

Solo 1:
          G           Bm                G            Bm
e|----10b---------------------------10b--------------------12-|
B|--------12----------------------------12--------------------|
G|-11----------11/9-9-9/11---12---11---------11/9-9-9/11------|
D|------------------------------------------------------------|
A|------------------------------------------------------------|
E|------------------------------------------------------------|
          C         Em      D
e|-------------------------------|
B|-------------------------------|
G|-9-11-11/12---9-11/14-----7/9--|
D|-------------------------------|
A|-------------------------------|
E|-------------------------------|

C           D                 C
  One more time empieza otra vez
         D                     C
  I feel fine quiero verte crecer
       D          Em      C
  Admirarte y gritar tu nombre


Repite Coro.
  G                       Em
e|-------10---10---------------10---10-------|
B|-------------------------------------------|
G|-11-12---------12-11---11-12---------12-11-|
D|-------------------------------------------|
A|-------------------------------------------|
E|-------------------------------------------|

  C                      D
e|-------10---10---------------10---10-------|
B|-------------------------------------------|
G|--9-11---------12-11---11-12---------12-11-|
D|-------------------------------------------|
A|-------------------------------------------|
E|-------------------------------------------|
                    Que viva la vida           (Repitas esto 4 veces)


comments
We did not receive enough feedback on this tab! Please rate:
print report bad tab
1 2 3 4 5
1 comment total.
0 reply
manufox1 wrote on April 11 2015, 02:23 pm

Gracias por acordes y tabs! Sin embargo falta el segundo solo y los acordes del segundo coro :/

I want to post or [tab]
guest
You may want to rate the tab now too:
select rating
Please do not post tabs as comments. Select "correction" instead!