Oops, an error
Loading. Please wait.

Tu Mujer Tab

version 1
version 1

Whole song

14 views 1 this week
no commentswrite comment
1 2 3 4 5
3 more votes to show rating
add to favorites
launch autoscroll
font size
0
reset
how to read this tab
guitar tuner
Autoscroll
slow
fast
+/-
esc
set tempo
stop
Help us to improve Ultimate-Guitar.com Take our survey!
×
Aqui les va el solo de esta rola... Esta facilisimo, les
aconsejo que primero oigan como va el ritmo y despues la
toquen...

e||----------------------------------------------||
B||-5--5-5-5-5-5---------------------------------||
G||--------------7-7-7--5--5-5-5-5-7-5-5-7-5-5-7-||
D||----------------------------------------------||
A||----------------------------------------------||
E||----------------------------------------------||

e||----------------------------------------------||
B||-5--5-5-5-5-5---------------------------------||
G||--------------7-7-7--5--5-5-5-5-7-5-5-7-5-5-7-||
D||----------------------------------------------||
A||----------------------------------------------||
E||----------------------------------------------||

e||----------------------------------------------||
B||-5--5/8-8888-5--------------------------------||
G||---------------5-7-7-5--5-5-5-5-7-5-5-7-5-5-7-||
D||----------------------------------------------||
A||----------------------------------------------||
E||----------------------------------------------||

e||----------------------------------------------||
B||-5--5/8-8888-5--------------------------------||
G||---------------5-7-7-5--5-5-5-5-7-5-5-7-5-5-7-||
D||----------------------------------------------||
A||----------------------------------------------||
E||----------------------------------------------||

e||----------------------------------------------||
B||----------------------------------------------||
G||---5-5-5-5-5-5--------------------------------||
D||----------------------------------------------||
A||----------------------------------------------||
E||----------------------------------------------||

Eso es todo, facil verdad? Cualquier duda, comentario o
lo que sea escribanme al mail
Suggest correction
Give kudos to tab author, rate the tab!
1 2 3 4 5
comments
print report bad tab
guest
You may want to rate the tab now too:
select rating
Wanna post a correction for this tab? Suggest correction