Oops, an error
Loading. Please wait.

Tu Mujer Tab

version 2
version 2

Whole song

16 views 1 this week
no commentswrite comment
1 2 3 4 5
3 more votes to show rating
add to favorites
×
Save as Personal and add changes to this tab that will be seen only by you. Learn more ›
×
You can save this tab as Personal to edit and correct it or add notes. All changes will be seen only by you. Learn more »
save as personal
new!
launch autoscroll
font size
0
reset
how to read this tab
guitar tuner
Autoscroll
slow
fast
+/-
esc
set tempo
stop
SOLO...

e|----------------------------------|
B|----------------------------------|
G|-9--9-9-9-9p7~~--5~---5-7-5-7-5-7s|
D|----------------------------------|
A|----------------------------------|
E|----------------------------------|

e|----------------------------------|
B|----------------------------------|
G|-9--9-9-9-9p7~~--5--5-5-7-5-7-5-7s|
D|----------------------------------|
A|----------------------------------|
E|----------------------------------|

e|-------------------------------------|
B|----8-8-8----------------------------|
G|-9--------9p7-5h7--5-5-5-7-5-7-5-7s--|
D|-------------------------------------|
A|-------------------------------------|
E|-------------------------------------|

e|-------------------------------------|
B|----8-8-8----------------------------|
G|-9--------9p7-5h7--5-5-5-7-5-7-5-7s--|
D|-------------------------------------|
A|-------------------------------------|
E|-------------------------------------|
Suggest correction
Give kudos to tab author, rate the tab!
1 2 3 4 5
comments
print report bad tab
guest
Wanna post a correction for this tab? Suggest correction