Oops, an error
Loading. Please wait.

Connie tab

4,892 views 6 this week
3 commentsread comments
1 2 3 4 5
x 4
add to favorites
×
Save as Personal and add changes to this tab that will be seen only by you. Learn more ›
×
You can save this tab as Personal to edit and correct it or add notes. All changes will be seen only by you. Learn more »
launch autoscroll
font size
0
reset
how to read this tab
guitar tuner
edit
Autoscroll
slow
fast
+/-
esc
set tempo
stop
Author
Connie by El Ten Eleven
by Hakeem H

Note: the tab isn't complete, I just thought this would be helpful for some people. Let 
know if you figure out the rest.

Standard Tuning - EADBGe
No Capo, yo.

guitar riff 1
---------------------------------------------------|
---------------------------------------------------|
---9----9----9----9--\--2----2----2----2--/--9-----|
------7----7----7---------0----0-----0-------------|
---------------------------------------------------|
---------------------------------------------------|

guitar riff 2
--------------------------------------------------|
--------------------------------------------------|
--------------------------------------------------|
---2----2----2----2---/---7----7----7----7--\--2--|
------0----0----0------------5----5----5----------|
--------------------------------------------------|


guitar riff 3
note: this can be played on the e string,
but this is how the studio version is.
-----------------------------------------------------------|
---(5)---------------5---/--(15)---------------------------|
-----------------------------------------------------------|
-----------------------------------------------------------|
-----------------------------------------------------------|
-----------------------------------------------------------|

http://www.elteneleven.com/

            
            
Suggest correction
Creating personal tab
Creating personal tab
You can edit any tab online and save it as your Personal.

You can edit, replace or remove any tab part or add personal notes – all changes will be seen only by you.

Personal tabs can be accessed anytime from any device, even offline.
Learn more »
comments
print report bad tab
3 comments total.
0 reply
Indie Purist 949 Sep 04, 2009 04:40 PM

G|-----------------------------------------------------------------
D|-----7----7-7-------9---99--------9---99------7----7-7-----------
A|-----------------------------------------------------------------
E|-7-77-77-7----9-99-9-999----9-99-9-999----7-77-77-7--------------

The bass in the beginning is something like this I believe. I tabbed out the entire song K10, if it's approved you will see it up.

+1 reply
Dakrr2 104 Aug 08, 2010 07:25 PM

someone needs to learn my only swerving

0 reply
ZombieSlayer19 82 Dec 08, 2010 08:56 AM

I actually think the bass line is somethin' like this

A|-----0---0--0-----3----3---3------3----3---3------0----0--0-
D|------------------------------3-33--333--33---0-00--000-00--
A|-0-00-000-00--3-33--333--33---------------------------------
E|------------------------------------------------------------

guest
You may want to rate the tab now too:
select rating
Wanna post a correction for this tab? Suggest correction