Oops, an error
Loading. Please wait.

Medianoche Tab

17 views 1 this week
no commentswrite comment
1 2 3 4 5
3 more votes to show rating
add to favorites
launch autoscroll
font size
0
reset
how to read this tab
guitar tuner
×
Best way to learn
"Medianoche"
Autoscroll
slow
fast
+/-
esc
set tempo
stop
Tablatura de: Quicote 
(emorano@
*********************

Intro:
       F                   G            A                    Em (E)
E-||---7/8--------8--10----7---------7--7/8---------8--10----7---
B-||----------10-----------------10-------------10---------------
G-||-------------------------------------------------------------
D-||-------------------------------------------------------------
A-||-------------------------------------------------------------
E-||-------------------------------------------------------------

       F                   G                           A  A    A    
E-||---7/8--------8--10----7---------------------7-8-7-----------
B-||----------10-----------------10-------8-8-10-------10--------
G-||-------------------------------------------------------------
D-||-------------------------------------------------------------
A-||-------------------------------------------------------------
E-||-------------------------------------------------------------


A                    G
Te recuerdo en el silencio
                  F
Rumores de hace tiempo
                   A
Que quiebran mi razón

  A                    G
Y en tus ojos que no mienten
                 F
Busco que me encuentren
                A
Donde esperaba yo


F                          G
Alma, medianoche en tu sonrisa
                           A
Y las palabras que en la brisa
                Em   (E)
No debimos olvidar
       F
La tormenta
                     G  
Que siempre pasó de largo
                           A
Se hizo fuerte y se ha tragado
                     Em   (E)
Lo que había que salvar
        F    G G   G
Hasta pronto
       A 
Si te vas


Solo:
       A                             G      
E-||--------7-7/8-7----10--8-7-8--10-7------5-5/7-5---8--7-5-7--8-5---
B-||-----10---------10--------------------8---------8-----------------
G-||---9--------------------------------7-----------------------------
D-||------------------------------------------------------------------
A-||------------------------------------------------------------------
E-||------------------------------------------------------------------

       F                      A    A    A    
E-||---8-7-----8-7-----8-7---3/5--3/5--3---------
B-||-------5-------5-------5-------------5-3/5---
G-||---------------------------------------------
D-||---------------------------------------------
A-||---------------------------------------------
E-||---------------------------------------------


  A                      G
Y en el tiempo que nos quede
                         F
Mientras que el viento muere
                   A   
No quieras recomenzar

 A                   G
Vale más que lo olvidemos
               F
Bebámos y brindemos
                   A
Lo hecho, hecho está

Em        F
Horas perdidas
G        A
No volverán


F                          G
Alma, medianoche en tu sonrisa
                           A
Y las palabras que en la brisa
                Em   (E)
No debimos olvidar
       F
La tormenta
                     G  
Que siempre pasó de largo
                           A
Se hizo fuerte y se ha tragado
                     Em   (E)
Lo que había que salvar
        F
Y es mi alma
                     G 
Medianoche en tu sonrisa
                           A
Y las palabras que en la brisa
                Em   (E)
No debimos olvidar
       F
La tormenta
                     G  
Que siempre pasó de largo
                           A
Se hizo fuerte y se ha tragado
                     Em   (E)
Lo que había que salvar
        F     G
Y es mi alma
      A     Em   (E)
Medianoche


(Intro1)


          F     G G   G
Y hasta pronto
       A
Si te vas
Suggest correction
Give kudos to tab author, rate the tab!
1 2 3 4 5
comments
print report bad tab
guest
You may want to rate the tab now too:
select rating
Wanna post a correction for this tab? Suggest correction