Oops, an error
Loading. Please wait.

El 24 Tab

677 views 18 this week
no commentswrite comment
1 2 3 4 5
3 more votes to show rating
add to favorites
launch autoscroll
font size
0
reset
how to read this tab
guitar tuner
Autoscroll
slow
fast
+/-
esc
set tempo
stop
Help us to improve Ultimate-Guitar.com Take our survey!
×
 EL REQUINTO ESTA EN EL TONO DE (LA) EMPIEZAS EN EL QUINTO TRASTE

REQUINTO ESTA EN EL TONO DE (LA)

E/-5-5-5-5-7-9--7-4
B/-7-7-7-7-9-10-9-5
G/-----------------
D/-----------------
A/----------------
E/----------------


E/-5-5-5-5-7-9--7-7-4
B/-7-7-7-7-9-10-9-9-5
G/-------------------
D/-------------------
A/-------------------
E/-------------------


E/-------------------
B/----4-5-4---4------
G/4-6------6-4-------
D/-------------------
A/-------------------
E/-------------------

                               MI# MI#
E/-5-7-11-9--7-5----------------------
B/-7-9-12-10-9-7-5-5-4----------------
G/--------------------6-4-------9---9-
D/-----------------------6-5-4--6---6-
A/----------------------------7-----7-
E/------------------------------7-----


MI
Me dicen el 24
MI7             LA
entre la gente importante
              MI
mi amigos y parientes
 SI7                MI
tambien me llaman tecate

MI
yo soy nacido en la sierra
MI7               LA
en el pueblo de la S
                       MI
y en el negocio donde ando
          SI7
se anda rifando la muerte

MI
que ya vengan los dareyes
a cantarme mis corridos
                   SI7
traigan perico y cerveza
       LA            MI
tambien botellas de vino

 MI
Tengo plebada a mi mando
MI7                 LA
pero tambien tengo jefe
                    MI
aquien yo respeto mucho
           SI7           MI
por que es un hombre valiente


MI
mi gente me apoya en todo
MI7                LA
por eso tengo un lugar
                   MI
y en el momento preciso
   SI7            MI
me la eh sabido jugar


MI
los numeros andan fuertes
por todos es muy sabido
                    SI7
las cosas se ponen bien
         LA         MI
por que somos muy unidos.

pues ayi tienen pollos!! aquI el pollo les deja este corridazo DE
 el 24 desde Pasco WASHINGTON EL POLLO!! OJALA LE ENTIENDAN
SI QUIEREN MAS INFORMATION SOBRE EL REQUINTO MANDEN UN MENSAJE
 A PAWSB@
Suggest correction
Give kudos to tab author, rate the tab!
1 2 3 4 5
comments
print report bad tab
guest
You may want to rate the tab now too:
select rating
Wanna post a correction for this tab? Suggest correction