Oops, an error
Loading. Please wait.

El Amor Es Un Caballo Tab

32 views 1 this week
no commentswrite comment
1 2 3 4 5
3 more votes to show rating
add to favorites
×
Save as Personal and add changes to this tab that will be seen only by you. Learn more ›
×
You can save this tab as Personal to edit and correct it or add notes. All changes will be seen only by you. Learn more »
save as personal
new!
launch autoscroll
font size
0
reset
how to read this tab
guitar tuner
Autoscroll
slow
fast
+/-
esc
set tempo
stop
Hola La Cuerda dejo otra canción de El Tijeritas
Cualquier comentario o petición, háganla al mail: hectorprs@


Introducción teclado: (hice un arreglo para guitarra)

     F#m                        E
e *--------------------9-----------------12-----12-9-----------------
B *--10----------9-10--------10-12------------9----------9-12-9------
G *--------11------------------------9------9----------9--------9----
D *-----11----11-------------------9---9-------------9------------9--
A *--9---------------------------------------------------------------
E *-----------------------------0------------------------------------

    D                 C#
e -----------5------------------9-------*
B --7----6-7------7---9-------9---------*
G -----7-------------------10-----------*
D --0-------------------11---------11---*
A --------------------------------------*
E --------------------9-----------------*


Guitarra eléctrica:

    A                             E                               D
e *---------9----9--12-9----9-12--12s16--12--------------------16-17-
B *-10p9-10---10---------10---------------------------14-15-17-------
G *------------------------------------------13-14-16----------------

                                    E            D               C#
e -----------12-14-16-17---12----12-14b16-14-12--12b14-12-10--14-13--
B --12-14-15------------------15-------------------------------------
G -------------------------------------------------------------------

               C#            C#alt
Porque tu eres paya y yo gitanillo
             C#    C#alt           C#    C#alt  C#
Tu padre no quiere que tu salgas conmigo
           C#              C#alt
No te deja verme y te pone trabas
            C#  C#alt             C# (Fill 1)
Pero en el amor no no importa la raza

Fill 1:
e *--------------------10-13--*
B *-----------10-12-14--------*
G *--10-11-13-----------------*

    Bm                   C#        Bm             C#
El amor no entiende de colores el amor no sabe de razas
       Bm            C#
e *----------------2-4---*
B *--2---2-3-5-3---------*
G *----4---------4-------*


F#m                   E
El amor es un caballo es un caballo veloz
D                            C# D    E D C#
Que no puede sujetarlo se desboca el corazón
F#m                   E
El amor es un caballo es un caballo veloz
D                            C# D    E D C#
Que no puede sujetarlo se desboca el corazón


Guitarra eléctrica:

    A                             E                               D
e *---------9----9--12-9----9-12--12s16--12--------------------16-17-
B *-10p9-10---10---------10---------------------------14-15-17-------
G *------------------------------------------13-14-16----------------

                                    E            D               C#
e -----------12-14-16-17---12----12-14b16-14-12--12b14-12-10--14-13--
B --12-14-15------------------15-------------------------------------
G -------------------------------------------------------------------

                 C#                 C#alt
Nuestro amor es grande no tiene fronteras
         C#       C#alt        C#    C#alt  C#
Para sujetarlo no
Suggest correction
Give kudos to tab author, rate the tab!
1 2 3 4 5
comments
print report bad tab
guest
Wanna post a correction for this tab? Suggest correction