Oops, an error
Loading. Please wait.

Gitana Tab

54 views 1 this week
no commentswrite comment
1 2 3 4 5
3 more votes to show rating
add to favorites
launch autoscroll
font size
0
reset
how to read this tab
guitar tuner
Autoscroll
slow
fast
+/-
esc
set tempo
stop
Help us to improve Ultimate-Guitar.com Take our survey!
×
Hola! Mi nombre es Rodrigo Aliaga Marquez y pues me pase toda la tarde
sacando esta rolita pero valió la pena...
para mi que se oye súper y pues es una de las canciones mas pedidas no?
Bueno pues saludos a mi Hermano Gerardo Lluta Ortega
y al gran amor de mi vida Ada Alvarado Carrillo

Es mi tercera colaboración en acordes y mi primera en tablura

Intro:

e|---------------------|-------0-5-8-7-5-7-|--------------------------
B|-3--1/3-1------------|--0-1-3------------|----0-1---------0-3-0-0h1-
G|-----------2-2-0-0h2-|-2-----------------|-0h2---0-0h2---2----------
D|---------------------|-------------------|--------------------------
A|---------------------|-------------------|--------------------------
E|---------------------|-------------------|--------------------------

e|---7-8-10-7-7h8--8-8h7-8-8---------|
B|-10--------------------------------|
G|---------------------------10-12/4-|
D|-----------------------------------|
A|-----------------------------------|
E|-----------------------------------|

                  Dm
Cada vez que yo la miro
           E
Por ella muero
               F
Sus ojo son dos estrellas
                      C
Que deslumbran como el pelo

              Dm    G
Yo quisiera hablarle
          C
Pero yo no puedo
               F
Me da no se que cosas
                  E
Frente sus ojos yo muero

Precoro:
     Dm       G
Y la miro cuando pasa
        C
Con su vestido blanco
      Dm
Sus zapatitos granan
    E
Hay mira estoy temblando

Coro:
                     Am                    G
El aire se hace mas puro cuando pasa esa gitana
                    F                            E
Su pelo y sus ojos bellos son dos flores en mi ventana
                     Am                    G
El aire se hace mas puro cuando pasa esa gitana
                    F                            E
Su pelo y sus ojos bellos son dos flores en mi ventana

Solo:

e|------10----------------|---10-8-10/12-10-8---------------|
B|-10-13--12-12/13-13-10--|-10---------------12-12-10-10/12-|
G|----------------------9-|---------------------------------|
D|------------------------|---------------------------------|
A|------------------------|---------------------------------|
E|------------------------|---------------------------------|

e|------10----------------|-7--7--7--7---7h8-7-7--7-10/12--10-8-7-|
B|-10-13--12-12/13-13-10--|--8--8--8--8---------10----------------|
G|----------------------9-|---9--9--9--9--------------------------|
D|------------------------|---------------------------------------|
A|------------------------|---------------------------------------|
E|------------------------|---------------------------------------|

e|--10h8----8--8----------------------7---------7-8-10-12-12/13-10/12|
B|---------10-10-10h12-10-9-10/5--9-10-10-9-9h10---------------------|
G|-------------------------------------------------------------------|
D|-------------------------------------------------------------------|
A|-------------------------------------------------------------------|
E|-------------------------------------------------------------------|


                   Dm                C
Es que yo quiero decirle que mi alma vive
     F              E
Y... vive por su semblante

Precoro:
     Dm       G
Y la miro cuando pasa
        C
Con su vestido blanco
      Dm
Sus zapatitos granan
    E
Hay mira estoy temblando


Precoro y Coro X 2 y luego

   Am             G
Hayley leyley leyley
   F              E
Hayley leyley leyley

                           --Fin-

NO A LA PIRATERIA

Atte. B@lto   tu_lobo_guardian@

Para la tablura

12/13= pisar el traste doce en la cuerda indicada y arrastrar al trece
7h8= pisas el traste 7 tocas la cuerda y sin volverla a tocar pisas con
     fuerza el traste 8 o viceversa cuando es:
8h7= pisas el traste 7 y 8 (al mismo tiempo) tocas la cuerda y levantas
     el dedo del traste 8 rápidamente esto se lo conoce como ligado.
Suggest correction
Give kudos to tab author, rate the tab!
1 2 3 4 5
comments
print report bad tab
guest
You may want to rate the tab now too:
select rating
Wanna post a correction for this tab? Suggest correction