Oops, an error
Loading. Please wait.

Se Tiene Que Ir Tab

36 views 3 this week
no commentswrite comment
1 2 3 4 5
3 more votes to show rating
add to favorites
launch autoscroll
font size
0
reset
how to read this tab
guitar tuner
×
Best way to learn
"Se Tiene Que Ir"
Autoscroll
slow
fast
+/-
esc
set tempo
stop
Hola La Cuerda aquí les dejo otra canción de El Tijeritas
Cualquier comentario o petición, háganla al mail: hectorprs@


Introducción: (aquí traté de imitar lo que hace el teclado)

     Dm          C           Bbmaj7   A7(#5)
e *--1-----------3-----------5-3------------5-3--
B *----3--3-5-6----3--3-5-6--3---6-5--6--5-------
G *--2-----------5-----------3--------6---------- 2 veces
D *--0-----------------------3-------------------
A *--------------3--------------------0----------
E *----------------------------------------------

     Dm      C       Bb      A7      Dm
e --------------------------------------------1---*
B ---6---6---5---5---3---3---2----2--3---3----3---*
G -----7-------5-------3-----0--0------2---2--2---*
D -----------------------------------0--------0---*
A ---5-------3-------1-------0--------------------*
E ------------------------------------------------*


           Dm                  C
Ven aquí pequeño tenemos que hablar
            Bb       Gm      A7
Vas a ser valiente y no llorarás
           A7
Ven aquí pequeño se marcha mamá
                               Dm
Cosas de mayores que no entenderás

              Gm                     Dm
A partir de mañana yo te pondré el pijama
                A7                    Dm
Te lavarás las manos como ella te enseñó
   D7         Gm     C           F
A partir de mañana ordenarás tu cuarto
    Bb          Gm          A7        Dm
Con todos los juguetes que ella te compró


             Gm   A7               Dm
Se tiene que ir,      se tiene que ir
     Gm                   A7                   Dm  C  Bb
Pero piensa que a ella le duele lo mismo que a ti
   A7        Gm   A7               Dm   Bm7(b5)
Se tiene que ir,      se tiene que ir
     Gm                   A7                   Dm
Pero piensa que a ella le duele lo mismo que a ti
             Gm   A7               Dm          Gm   A7   Dm
Se tiene que ir,      se tiene que ir...


     Dm          C           Bbmaj7   A7(#5)
e *--1-----------3-----------5-3------------5-3--
B *----3--3-5-6----3--3-5-6--3---6-5--6--5-------
G *--2-----------5-----------3--------6----------
D *--0-----------------------3-------------------
A *--------------3--------------------0----------
E *----------------------------------------------

     Dm      C       Bb      A7      Dm
e --------------------------------------------1---*
B ---6---6---5---5---3---3---2----2--3---3----3---*
G -----7-------5-------3-----0--0------2---2--2---*
D -----------------------------------0--------0---*
A ---5-------3-------1-------0--------------------*
E ------------------------------------------------*


           Dm                     C
Ven aquí pequeño no me has de engañar
               Bb        Gm      A7
Porque cuando duermes te oigo llorar
           A7
Ven aquí pequeño no me sufras más
                               Dm
Porque yo tampoco la puedo olvidar


              Gm                     Dm
A partir de mañana yo te pondré el pijama
                A7                    Dm
Te lavarás las manos como ella te enseñó
   D7         Gm     C           F
A partir de mañana ordenarás tu cuarto
    Bb          Gm          A7        Dm
Con todos los juguetes que ella te compró


             Gm   A7               Dm
Se tiene que ir,      se tiene que ir
     Gm                   A7                   Dm  C  Bb
Pero piensa que a ella le duele lo mismo que a ti
   A7        Gm   A7               Dm   Bm7(b5)
Se tiene que ir,      se tiene que ir
     Gm                   A7                   Dm
Pero piensa que a ella le duele lo mismo que a ti


             Gm   A7               Dm
Se tiene que ir,      se tiene que ir
     Gm                   A7                   Dm  C  Bb
Pero piensa que a ella le duele lo mismo que a ti
   A7        Gm   A7               Dm   Bm7(b5)
Se tiene que ir,      se tiene que ir
     Gm                   A7                   Dm
Pero piensa que a ella le duele lo mismo que a ti


             Gm   A7               Dm      Gm  A7  Dm  C  Bb
Se tiene que ir,      se tiene que ir
   A7        Gm   A7               Dm   Bm7(b5)
Se tiene que ir,      se tiene que ir


Acorde Bm7(b5):

e *-------*---1---*
B *---6---*---3---*
G *---7---*---2---*
D *---7---*-------*
A *-------*---2---*
E *---7---*-------*
Suggest correction
Give kudos to tab author, rate the tab!
1 2 3 4 5
comments
print report bad tab
guest
You may want to rate the tab now too:
select rating
Wanna post a correction for this tab? Suggest correction