Oops, an error
Loading. Please wait.

A.d.o. Bass

version 2
version 2

Whole song

by El Tri
354 views 1 this week
no commentswrite comment
1 2 3 4 5
3 more votes to show rating
add to favorites
launch autoscroll
font size
0
reset
guitar tuner
Autoscroll
slow
fast
+/-
esc
set tempo
stop
Este es un acompañamiento ke puedes hacer con la lira,
suena chido y es muy facil...

 e---------------
 B---------------
 G---------------
 D---------------
 A---6--7--8--7--
 E--4--4--4--4---       X3


 e---------------
 B---------------
 G---------------
 D---------------
 A---6--7--8--9--
 E--4--4--4--4---       X1


 e----------------
 B----------------
 G----------------
 D----------------
 A---8--9--10--9--
 E--6--6--6---6---      X2


 e---------------
 B---------------
 G---------------
 D---------------
 A---6--7--8--7--
 E--4--4--4--4---       X2


 e-------------------
 B-------------------
 G-------------------
 D-------------------
 A---10--11--12--11--
 E--8---8---8---8----   X2


 e----------------
 B----------------
 G----------------
 D----------------
 A---8--9--10--9--
 E--6--6--6---6---      X2


 e---------------
 B---------------
 G---------------
 D---------------
 A---6--7--8--7--
 E--4--4--4--4---       X2


 e-------------
 B-------------
 G-------------
 D-------------
 A---3~~4~~5---
 E--1~~2~~3----        X1

Y asi se vuelve a repetir todo,durante toda la rola.


Eso es todo y espero ke les guste


thE mR. sPiRo GoOdTrIpS: the_spiro2505@
Suggest correction
Give kudos to tab author, rate the tab!
1 2 3 4 5
comments
print report bad tab
guest
You may want to rate the tab now too:
select rating
Wanna post a correction for this tab? Suggest correction