Oops, an error
Loading. Please wait.

A.d.o. Tab

version 2
version 2

Whole song

by El Tri
268 views 1 this week
no commentswrite comment
1 2 3 4 5
3 more votes to show rating
add to favorites
×
Save as Personal and add changes to this tab that will be seen only by you. Learn more ›
×
You can save this tab as Personal to edit and correct it or add notes. All changes will be seen only by you. Learn more »
save as personal
new!
launch autoscroll
font size
0
reset
how to read this tab
guitar tuner
Autoscroll
slow
fast
+/-
esc
set tempo
stop
Todos estuvieron mal, aunque un poco cerca.
La rola se desgloza asi... 100% correcta.
Apropósito, muuuuuuuuuuuuy dificil para los principiantes.


   (parte 1)  Intro -- ( X2 veces)

  E|--------------------------------|
  B|--------------------------------|
  G|--------------------------------|
  D|--------------------------------|
  A|--7---7---9---7--10---7---9---7-|
  E|--5---5---5---5---5---5---5---5-|


   (parte 2)

  E|----------------------------------|
  B|----------------------------------|
  G|----------------------------------| (2 VECES)
  D|--7---7---9---7--10---7---9---7---|
  A|--5---5---5---5---5---5---5---5---|
  E|----------------------------------|


   (parte 3)

  E---------------------------------|
  B---------------------------------|
  G---------------------------------|
  D--9---9--11---9--12---9--11---9--|  (2 VECES)
  A--7---7---7---7---7---7---7---7--|
  E---------------------------------|


   (parte 4)
  E-----------------------|
  B-----------------------|
  G-----------------------|
  D-----------------------|
  A---7----8----9---------|
  E---5----6----7---------|


   (parte 1)                                          (parte 1)
   Estoy esperando mi camión en la terminal del A.D.O.
   (parte 2)                                       (parte 1)
   Estoy esperando mi camión en la terminal del A.D.O.
                 (parte 3)       (parte 2)              (parte 1)(parte 4)
   Quiero que me lleve muy lejos, a la chingada de aquí


   (parte 1)                                            (parte 1)
   No me he podido consolar desde que mi novia me dejó,
   (parte 2)                                         (parte 1)
   No me he podido consolar desde que mi novia me dejó,
             (parte 3)            (parte 2)          (parte 1)(parte 4)
   no me consuela ni la mota ni las pastas ni el alcohol.


   (pausa)
   Yo la trate como una reina, le di todo lo mejor
                                                      (parte 2)
   Le di todo mi dinero, le di todo mi amor y sin embargo
                 (parte 1)
   ella me abandonó

   (parte 1)
   Estoy esperando mi camión en la terminal del A.D.O.
   (parte 1)
   Estoy esperando mi camión en la terminal del A.D.O
   (parte 1)
   Estoy esperando mi camión en la terminal del A.D.O.
   (parte 1)   (parte 4)


 AHH SIGAN LA ROLA CON MUSICA... Y QUE VIVA EL ROCK AND ROOOOLL !"!!


    dUDAS de como colocar la mano si no te alcanza la rapidez a:
byron_evilness@
Suggest correction
Give kudos to tab author, rate the tab!
1 2 3 4 5
comments
print report bad tab
guest
Wanna post a correction for this tab? Suggest correction