Oops, an error
Loading. Please wait.

A.d.o. Tab

version 3
version 3

Whole song

216 views 3 this week
no commentswrite comment
1 2 3 4 5
3 more votes to show rating
add to favorites
launch autoscroll
font size
0
reset
how to read this tab
guitar tuner
Autoscroll
slow
fast
+/-
esc
set tempo
stop
Help us to improve Ultimate-Guitar.com Take our survey!
×
   Realmente todas las transcripciones de esta rola son buenas,
 ustedes elijan la que más les guste y toquenla.

   (parte 1)

  E-----------------------------------------------------------
  B------------------------------------------------------------|
  G------------------------------------------------------------|
  D------------------------------------------------------------|
  A--9---9---11--9---9---9---11--9---9---9--11---9---9---9--11-|
  E--7---7---7---7---7---7---7---7---7---7---7---7---7---7---7-|
  

   (parte 2)

  E-----------------------------------------------------------|
  B-----------------------------------------------------------|
  G-----------------------------------------------------------|
  D--9---9---9---11--9---9---9---11--9---9---9--11---9---9----|
  A--7---7---7---7---7---7---7---7---7---7---7---7---7---7----|
  E-----------------------------------------------------------|


   (parte 3)

  E-----------------------------------------------|
  B-----------------------------------------------|
  G-----------------------------------------------|
  D-11--11--13--11--11--13--11--11--13--11--11----|
  A--9---9---9---9---9---9---9---9---9---9---9----|
  E-----------------------------------------------|

 
   (parte 4)
  E-----------------------|
  B-----------------------|
  G-----------------------|
  D-----------------------|
  A---7----8----9---------|
  E---5----6----7---------|


   
   (parte 1)                                          (parte 1)
   Estoy esperando mi camión en la terminal del A.D.O.
   (parte 2)                                       (parte 1)
   Estoy esperando mi camión en la terminal del A.D.O.
                 (parte 3)       (parte 2)              (parte 1)   (parte 4)        
   Quiero que me lleve muy lejos, a la chingada de aquí 
   
   
   (parte 1)                                            (parte 1) 
   No me he podido consolar desde que mi novia me dejó, 
   (parte 2)                                         (parte 1)
   No me he podido consolar desde que mi novia me dejó,
             (parte 3)            (parte 2)          (parte 1)    (parte 4)
   no me consuela ni la mota ni las pastas ni el alcohol.
   
   
   (pausa)
   Yo la trate como una reina, le di todo lo mejor
                                                      (parte 2)     
   Le di todo mi dinero, le di todo mi amor y sin embargo
                 (parte 1) 
   ella me abandonó 
   
   (parte 1)
   Estoy esperando mi camión en la terminal del A.D.O.
   (parte 1)
   Estoy esperando mi camión en la terminal del A.D.O
   (parte 1)
   Estoy esperando mi camión en la terminal del A.D.O.
   (parte 1)   (parte 4)
            

    
    Cualquier duda o comentario escribanme a blaheur_jezb@
    recuerden hacer contacto a la misma dirección. gracias
Suggest correction
Give kudos to tab author, rate the tab!
1 2 3 4 5
comments
print report bad tab
guest
You may want to rate the tab now too:
select rating
Wanna post a correction for this tab? Suggest correction