Oops, an error
Loading. Please wait.

Chilango Incomprendido Chords

version 1
version 1

Whole song

by El Tri
88 views 1 this week
no commentswrite comment
1 2 3 4 5
3 more votes to show rating
add to favorites
×
Save as Personal and add changes to this tab that will be seen only by you. Learn more ›
×
You can save this tab as Personal to edit and correct it or add notes. All changes will be seen only by you. Learn more »
save as personal
new!
launch autoscroll
font size
0
reset
transpose
0
reset
simplify chords
display chords
guitar tuner
Autoscroll
slow
fast
+/-
esc
set tempo
stop
Strumming
There is no strumming pattern for this song yet. and get +5 IQ
* guitarra acustica

Am       Cm          Dm              F
Nadie le dijo que se fuera de su casa
Am       Cm          Dm             Em
Madie le dijo lo que tenia que hacer
Am       Cm          Dm             F
Sali¢ un domingo cuando estaba amaneceindo
Am     E5           Am
Y nunca lo volviero a ver ...  E5 E5 E5 E5 E5

                                      
* En esta parte es la bateria. bajo y las tres guitarras,
una de ellas con las mismas notas solo tocas las dos primeras
cuerdas, la segunda como la acustica y la tercera con tomos
que mustra en los chords.


Am       Cm                Dm          F
  Dejo su pueblo por que haya no tenia chamba
Am       Cm          Dm         Em
  Se vino a talonear a la gran ciudad
Am       Cm            Dm        F
  Aca en el D.F. ya le ha hacho de todo
Am            E5       Am     E5 E5 E5 E5 E5
Hasta de narco y atracador..

CORO # 1

Cm F  Gm     Cm      F         Gm
Chilango...  chilango incomprendido
Cm F  Gm      D      A.       Em        F  Gm   Am
Chilango...   evequense por necesidad


    Am     Cm             Dm         F
    Anda rolando en su carro convertible
  Am       Cm          Dm            Em
    En cualquier metro o en cualquier eje vial
  Am       Cm          Dm           F
    En ese coche en el d¡a vende jugos
  Am         E5         Am    E5 E5 E5 E5 E5
    Y por las noche Hot-Dogs

 CORO # 2

   Cm F  Gm      Cm      F        Gm
   Chilango...    Chilango aferrado
   Cm F  Gm       D      A.       Em       F  Gm  Am
   Chilango...    evequense por necesidad


* Harmonica solo              ^ full
e|-----------------------------|-\---------------|
B|-15vv--15-17-19-20-19-18-19-19--(19)vv---------|
G|-----------------------------------------------|
D|-----------------------------------------------|
A|-----------------------------------------------|
E|-----------------------------------------------|
                         ^ full
e|-----------------------|-\---------------------|
B|-15-17-19-20-19-18-19-17-(17)vv----------------|
G|-----------------------------------------------|
D|-----------------------------------------------|
A|-----------------------------------------------|
E|-----------------------------------------------|
                         ^ full
e|-----------------------|-\---------------------|
B|-15-17-19-20-19-18-19-19--(19)vv---19-17-15-14-|
G|-----------------------------------------------|
D|-----------------------------------------------|
A|-----------------------------------------------|
E|-----------------------------------------------|

* Solo (* guitarra electrica, sin distorci¢n)
e|--5-5-5-7-8------------------------------|
B|------------/-8--6-5-6-5---5-------------|
G|-------------------------7---5-/-2-------|
D|-----------------------------------------|
A|-----------------------------------------|
E|-----------------------------------------|

     ^
     |\_
e|--10--(10)--8--10--8------8--8-----------|
B|----------------------10---------8-/-10--|
G|-----------------------------------------|
D|-----------------------------------------|
A|-----------------------------------------|
E|-----------------------------------------|
                          ^
                          | full
e|--10p12--13--13--12-10--|----10--12---12-10---------|
B|-----------------------12-----------13-----13-12/10-|
G|----------------------------------------------------|
D|----------------------------------------------------|
A|----------------------------------------------------|
E|----------------------------------------------------|

                        * Apartir de aqu¡ es muy r pido
e|------------------------------------------------|
B|--10-9------------------------------------------|
G|-------10-9------------10-9-------9-------------|
D|--------------12-10-9-------12-10---12-10-9-----|
A|---------------------------------------------12-|
E|------------------------------------------------|

      A      E5
Muchos milusos
 D
Que vienen diariamente
A
Para aca
A           E5
Ya no ... cabemos

F      G       A.
    ... Ya no cabemos !

 * Igual que los anteriores


    Haya en su pueblo vivia como jefe
    Sobrevivia con facilidad
    Aca en el D.F. trabaja como negro
    Y no le alcanza para trabajar

 CORO 1 Y CORO 2

=================================================
Copiado de la Biblioteca de Zero Musica
(
Suggest correction
Give kudos to tab author, rate the tab!
1 2 3 4 5
comments
print report bad tab
guest
Wanna post a correction for this tab? Suggest correction