Oops, an error
Loading. Please wait.

El Enmascarado Del Latex Tab

by El Tri
56 views 1 this week
no commentswrite comment
1 2 3 4 5
3 more votes to show rating
add to favorites
launch autoscroll
font size
0
reset
how to read this tab
guitar tuner
×
Best way to learn
"El Enmascarado Del Latex"
Autoscroll
slow
fast
+/-
esc
set tempo
stop
En esta cancion se usan 2 riff's.
Riff 1: G-D-C-D
Riff 2: C-G-C-D

Riff 1

E-------------------
B-------------------
G-------------------  x2
D-------------------
A--5-5-5/8---8/5----
E--3-3-3/6---6/3----

E-------------------
B-------------------
G-------------------  x2
D--7-7-7/10---10/7--
A--5-5-5/8-----8/5--
E-------------------

E-------------------
B-------------------
G-------------------  x1
D--5-5-5/8----8/5---
A--3-3-3/6----6/3---
E-------------------

E-------------------------------------
B-------------------------------------
G-------------------------------------
D--7--X-10-10--99-7------77-55--------
A--5--X-8--8---77-5-5----55-33-5------
E-------------------3----------3------
   (D-X-FFEEDG *silencio* DD-CC-G *silencio*)


Riff 2 (A mi me dicen... el enmascarado de latex)

E----------------------------------
B----------------------------------
G----------------------------------
D--5-5-5-5---------5-5-5-5-7-7-7-7-
A--3-3-3-3-5-5-5-5-3-3-3-3-5-5-5-5-
E----------3-3-3-3-----------------


Como los riffs son diferentes es facil ver donde va cada uno,
asi que esta canciòn es facil. solo denle el rasgueo correcto.
Suggest correction
Give kudos to tab author, rate the tab!
1 2 3 4 5
comments
print report bad tab
guest
You may want to rate the tab now too:
select rating
Wanna post a correction for this tab? Suggest correction