Oops, an error
Loading. Please wait.

El Muchacho Chicho Tab

118 views 1 this week
no commentswrite comment
1 2 3 4 5
3 more votes to show rating
add to favorites
launch autoscroll
font size
0
reset
how to read this tab
guitar tuner
Autoscroll
slow
fast
+/-
esc
set tempo
stop
Help us to improve Ultimate-Guitar.com Take our survey!
×
esta rola esta chida para hechar relajo por eso la saque.
De Felix Ocampo M. Para la banda.


Cuando empieza a cantar alex lora, hace el intro con el seguimiento

Intro             /  seguimiento, pero con ritmo
6-----------------/-----------------------/-----------------------------
5--3--0--0--0--0--/--3--5--3--0--0--0--0--/--3--0--3--0--3--0--0--0?-0--
4-----2--2--2--2--/-----------2--2--2?-2--/-----------------2--2?-2?-2--
3-----------------/-----------------------/-----------------------------
2-----------------/-----------------------/-----------------------------
1-----------------/-----------------------/-----------------------------

después de que dice ?para evitar un robo?
entra asi.
6-------------------------------------------------------------------
5--0--0--2--2--3--3--5----------------------------------------------
4------------------------0--0--0--0--0--3--5---0--0--0--0--0--3--5--
3------------------------2--2--2--2--2--2--2---2--2--2--2--2--2--2--
2-------------------------------------------------------------------
1-------------------------------------------------------------------

después cuando habla: pusi niñitos y se creen que todos estos rollos etc.

la segunda guitarra hace en pisadas quintas(5) esto.

6--3--4--5-5---------------/--------------------------
5--5--6--7-7--3-3--5--3-3--/--3--5--3-3---------------
4--5--6--7-7--5-5--7--5-5--/--5--7--5-5--3-3--5--3-3--
3-------------5-5--7--5-5--/--5--7--5-5--5-5--7--5-5--
2--------------------------/-------------5-5--7--5-5--
1--------------------------/--------------------------

este requinto no es muy exacto.

6---------------------------------------------------------------------
5---------------------------------------------------------------------
4---------------------------------12bb--------------------------------
3?11b-11b-11b-11b-11b-11b-11b-9-7-------------------------------------
2-----------------------------------------------------------------12--
1---------------------------------------10-12-13-12-10---10-12-10-----
                                          varias veces

6-----------------/-----------/-------
5-----------------/--aqui-----/-------
4-----------------/-le--------/--10v--
3-----------------/-improvisan/-------
2-----12-10-12----/-----------/-------
1--10----------10-/-----------/-------


es todo lo que necesitan para tocarla, solamente en el requinto
le hechan un poco de su ingenio.
Suggest correction
Give kudos to tab author, rate the tab!
1 2 3 4 5
comments
print report bad tab
guest
You may want to rate the tab now too:
select rating
Wanna post a correction for this tab? Suggest correction