Oops, an error
Loading. Please wait.

La Pantera Rosa Tab

209 views 1 this week
no commentswrite comment
1 2 3 4 5
3 more votes to show rating
add to favorites
launch autoscroll
font size
0
reset
how to read this tab
guitar tuner
×
Best way to learn
"La Pantera Rosa"
Autoscroll
slow
fast
+/-
esc
set tempo
stop
Esta version es muy moderna pero se oye 
igual a la de la pantera rosa, esta padrisima

e------------
b------------
g------------
d------------
a---5/6--7---
e------------


e-------------
b-------------
g-------------
d-------------
a---5/6--7----
e---5/6--7----


e--------------
b--------------
g--------------
d--------------
a---4p5---6/7--
e--------------


e--------------------------------------
b--------------------------------------
g--------------------------------------
d--------------------------------------
a---7p6---5/4--4--4-4--4--4-4--4--4-4--
e--------------4--4-4--4--4-4--4--4-4--


e-----------------------        
b-----------------------        
g-----------------------
d-----------------------
a---4p5---6/7--7-7--7---
e--------------7-7--7---


e--------------------------------------
b--------------------------------------
g--------------------------------------
d--------------------------------------
a---7p6---5/4--4--4-4--4--4-4--4--4-4--
e--------------4--4-4--4--4-4--4--4-4--


e-----------------------------------------------------------------
b-----------------------------------------------------------------
g-----------------------------------------------------------------
d---------------------------------10p9--------9p8-----------------
a---4p5---6p7---9p10---6p7--9p10--------6p7---------13-12-10-8-7--
e-----------------------------------------------------------------


e----------------------------------------------------
b----------------------------------------------------
g-------------------------------------------9p8------
d--------------------------------10p9----------------
a---4p5---6p7---9p10--6p7--9p10--------6p7-----------
e----------------------------------------------------


e-----------------------------------------------
b-----------------------------------------------
g---9--7----------------------------------------
d--------9--7-----------------------------------
a-------------10--7--13-13-13-13--13-11-10-8-7--
e-----------------------------------------------


e--------------
b--------------
g--------------
d--------------
a---7p6--5/4---
e--------------
Suggest correction
Give kudos to tab author, rate the tab!
1 2 3 4 5
comments
print report bad tab
guest
You may want to rate the tab now too:
select rating
Wanna post a correction for this tab? Suggest correction