Oops, an error
Loading. Please wait.

Nunca Digas Que No Tab

136 views 1 this week
no commentswrite comment
1 2 3 4 5
3 more votes to show rating
add to favorites
launch autoscroll
font size
0
reset
how to read this tab
guitar tuner
Autoscroll
slow
fast
+/-
esc
set tempo
stop
Help us to improve Ultimate-Guitar.com Take our survey!
×
 h - hammer on
 p - pull off
 b - bend
 ~ - vibrato
 

 "Nunca digas que no"
 El Tri
 EN VIVO!!! Y A TODO CALOR
 EN EL HOLLYWOOD PALLADIUM

    INTRO:
 E|-------------------------------------|---------------------------|
 B|-12----------------------------12----|---------------------------|
 G|-12-14-12----12-12~~--12h14----12-14-|-------12-14-12-14---------|
 D|----------14----------------14-------|-12h14---------------------|
 A|-------------------------------------|---------------------------|
 E|-------------------------------------|---------------------------|


 E|------------------------------|---------|------------------------|
 B|-12---------------------------|-12-15~~-|------------------------|
 G|-12-14-12----12-12~~-12h14----|-12------|-------12-14-12-14------|
 D|----------14---------------14-|---------|-12h14------------------|
 A|------------------------------|---------|------------------------|
 E|------------------------------|---------|------------------------|
    
   
  
  
              G
  Siempre pensé 
           C                G
  que el amor era sólo un juego 
          Em
  un pasatiempo 
          C           D
  para jugarse entre dos,
           G
  nunca creí
          C         G     Em
  que pudiera enfermarme tanto
          C                            D
  y que nunca se me quitara la infección.

                  Em          G
  Pero hay que saber perder 
             Em           G
  hay que saber pedir perdón 
          C
  y aprender a doblar las manos 
                    D
  al llegar la ocasión,
                   Em   C-D
  nunca digas que no.

  
            G
  Puedes ganar 
          C                G
  si la suerte está de tu lado 
               Em       C     
  puedes volverte millonario 
              D
  por casualidad
            G               C
  pero hay miles de gentes 
               G   Em
  que mueren diariamente 
        C        
  sin haber sabido 
                 D
  lo que es el amor.

  

                    Em          G
  Pero hay que saber perder 
             Em           G
  hay que saber pedir perdón 
          C
  y aprender a doblar las manos 
                    D
  al llegar la ocasión,
                   Em   C-D   Em   C-D
  nunca digas que no.

  

  SOLO:

 E|-------------------------|----------------------------------------|
 B|-12----12----------------|-----12--------------------------12-----|
 G|-12-14-12-14-12----------|-14b----14b-14p12-14-12----12----12-----|
 D|----------------14~~~~~~-|------------------------14----14--------|
 A|-------------------------|----------------------------------------|
 E|-------------------------|----------------------------------------|


 E|------------------------------------------------------------------|
 B|-----12-13-12--12h13p12-----------12h13p12-----------12h13p12-----|
 G|-14b--------------------14-12h14------------14-12-----------------|
 D|--------------------------------------------------14--------------|
 A|------------------------------------------------------------------|
 E|------------------------------------------------------------------|


 E|----------------------------|-------------------------------------|
 B|----------12h13p12----------|-------------------------------------|
 G|-14-12-14----------14-12----|-------12-11-11h12p11----------------|
 D|-------------------------14-|-12-14----------------14~14~14~12~---|
 A|----------------------------|-------------------------------------| 
 E|----------------------------|-------------------------------------|
  
 E|-------------|---------------------15-14-12-12~~-14-15-14-17-14---|
 B|-------------|-12-12----15b-15-15b--------------------------------|
 G|-------------|-12-12----------------------------------------------|
 D|-5-4-2-0-2~~-|-------14-------------------------------------------|
 A| ------------|----------------------------------------------------|
 E| ------------|----------------------------------------------------|


 E|-15-14-17p14-14-15p14-14-17p14-15p14-17p14-15p14-17p14-15p14------|
 B|------------------------------------------------------------------|
 G|------------------------------------------------------------------|
 D|------------------------------------------------------------------|
 A|------------------------------------------------------------------|
 E|------------------------------------------------------------------|
  
 E|-17p14-15p14-17p14-15p14-17p14-15p14-17p14-15p14-17p14-15p14------|
 B|------------------------------------------------------------------|
 G|------------------------------------------------------------------|
 D|------------------------------------------------------------------|
 A|------------------------------------------------------------------|
 E|------------------------------------------------------------------|
  

 E|-17p14-15p14-17p14-15p14-19p15-17p15-19p15-17p15-19p15-17p15------|
 B|------------------------------------------------------------------|
 G|------------------------------------------------------------------|
 D|------------------------------------------------------------------|
 A|------------------------------------------------------------------|
 E|------------------------------------------------------------------|
  

 E|-19p15-17p15-19p15-17p15-19p15-17p15-19p15-17p15-19p15-17p15------|
 B|------------------------------------------------------------------|
 G|------------------------------------------------------------------|
 D|------------------------------------------------------------------|
 A|------------------------------------------------------------------|
 E|------------------------------------------------------------------|
  
 E|-19p15-17p15-19p15-17p15-19p15-17p15-19p15-17p15-19p15-17-15------|
 B|------------------------------------------------------------------|
 G|------------------------------------------------------------------|
 D|------------------------------------------------------------------|
 A|------------------------------------------------------------------|
 E|------------------------------------------------------------------|
  
 E|-20b-20b-20b-20b-17-20p17-19p17-----17-----17---------------------|
 B|--------------------------------20b----20b----20p19p17-20p19p17---|
 G|------------------------------------------------------------------|
 D|------------------------------------------------------------------|
 A|------------------------------------------------------------------|
 E|------------------------------------------------------------------|
  
 E|----------------------|-------------------|-----------------------|
 B|-19b-19b-19b-19b-19~~-|-20b-20b-20-20b-20-|-20b-17-20b-17-20p17---|
 G|----------------------|-------------------|-----------------------|
 D|----------------------|-------------------|-----------------------|
 A|----------------------|-------------------|-----------------------|
 E|----------------------|-------------------|-----------------------|
  

 E|----------------------|-----17-20p17-19p17-----17-------|---------|
 B|----17----------------|-20b----------------20b----20-17-|-17~15~~-|
 G|-19----19-17-19-16-17-|---------------------------------|---------|
 D|----------------------|---------------------------------|---------|
 A|----------------------|---------------------------------|---------|
 E|----------------------|---------------------------------|---------|
  

 E|-----12-----------12-----------12-----------12-----------12-------|
 B|-15b----15p12-15b----15p12-15b----15p12-15b----15p12-15b----15p12-|
 G|------------------------------------------------------------------|
 D|------------------------------------------------------------------|
 A|------------------------------------------------------------------|
 E|------------------------------------------------------------------|
  

 E|-----12-----------12-----------12-----------12-----------12-------|
 B|-15b----15p12-15b----15p12-15b----15p12-15b----15p12-15b----15p12-|
 G|------------------------------------------------------------------|
 D|------------------------------------------------------------------|
 A|------------------------------------------------------------------|
 E|------------------------------------------------------------------|
  

 E|-----12-----------12-----------12---------------------------------|
 B|-15b----15p12-15b----15p12-15b----15p12----12---------------------|
 G|----------------------------------------14----14p12----12~~-------|
 D|----------------------------------------------------14------14----|
 A|------------------------------------------------------------------|
 E|------------------------------------------------------------------|
  

 E|---------------------------|-20b-20b-20b-20b-20b-20b-20b-20b-20---|
 B|-12-------------15b-15b-15-|--------------------------------------|
 G|-12----12h14p12------------|--------------------------------------|
 D|----14---------------------|--------------------------------------|
 A|---------------------------|--------------------------------------|
 E|---------------------------|--------------------------------------|
  
  
 E|-----17-----17----17-----17-----17-----17-----17-----17-20p17-----|
 B|-20b----20b----20----20b----20b----20b----20b----20b--------------|
 G|------------------------------------------------------------------|
 D|------------------------------------------------------------------|
 A|------------------------------------------------------------------|
 E|------------------------------------------------------------------|
  

 E|-19p17----17------------------|--------------|--------------------|
 B|-------20----20p17----17-20~~-|---8---10-8---|--------------------|
 G|-------------------19---------|-9---9------9-|-7-9-7~~-9-7-7~~----|
 D|------------------------------|--------------|--------------------|
 A|------------------------------|--------------|--------------------|
 E|------------------------------|--------------|--------------------|
  

 E|--------------------|--------------|-----------------|-12----12---|
 B|-12-----12----------|---8---10-8---|-----------------|-12-15------|
 G|-12--14----14-12----|-9---9------9-|-7-9-7~~-9-7-7~~-|------------|
 D|-----------------14-|--------------|-----------------|------------|
 A|--------------------|--------------|-----------------|------------|
 E|--------------------|--------------|-----------------|------------|
  

 E|------------------------------------------------------------------|
 B|-15-12-15~~-------------------------------------------------------|
 G|------------------------------------------------------------------|
 D|------------------------------------------------------------------|
 A|------------------------------------------------------------------|
 E|------------------------------------------------------------------|
Suggest correction
Give kudos to tab author, rate the tab!
1 2 3 4 5
comments
print report bad tab
guest
You may want to rate the tab now too:
select rating
Wanna post a correction for this tab? Suggest correction