Oops, an error
Loading. Please wait.

Oye Cantinero Tab

version 1
version 1

Whole song

by El Tri
789 views 6 this week
no commentswrite comment
1 2 3 4 5
3 more votes to show rating
add to favorites
launch autoscroll
font size
0
reset
how to read this tab
guitar tuner
×
Best way to learn
"Oye Cantinero"
Autoscroll
slow
fast
+/-
esc
set tempo
stop
e-----------------------------------------------------
b-----------------------------------------------------
g-----------------------------------------------------
d---0-1-2-0-1-2-0-1-2-0---------2~--------------------
a-1---------------------1-0-1-0-----------------------
e-----------------------------------------------------


e-----------------------------------------------------
b-----------------------------------------------------
g-----------------------------------------------------
d---0-1-2-0------------------0-1-0---0-1-2------------
a-1----------2-0-----------1-------1------------------
e----------------3-0-----0----------------------------

Banda aqui les va lo que es el principio de la cancion 
de OYE CANTINERO no ha sido puesta asi que aver si les 
gusta. se oye bien nadamas es de que le agarren el ritmo
Suggest correction
Give kudos to tab author, rate the tab!
1 2 3 4 5
comments
print report bad tab
guest
You may want to rate the tab now too:
select rating
Wanna post a correction for this tab? Suggest correction